Box Car Racer - All Systems Go Chords & Tabs

 

All Systems Go Chords & Tabs

Box Car Racer Chords & Tabs

Version: 2 Type: Tab 0 ratings
1 star 2 stars 3 stars 4 stars 5 stars
comments

All Systems Go Tab

"All Systems Go"
Box Car Racer (it's 3 words)
Standard tuning

Intro
e|----------------------------------------|
B|----------------------------------------|
G|----------------------------------------|
D|----------------------------------------|
A|----------------------------------------|
E|--55-55-555-5555555--55-55-555-5555555--|


e|--------------------------------------|
B|--------------------------------------|
G|--2-2-2--6-6-6--------2-2-------------| x4
D|--2-2-2--6-6-6--6-6---2-2---6-6--2-2--|
A|--0-0-0--4-4-4--6-6---0-0---6-6--2-2--|
E|----------------4-4---------4-4--0-0--|

Verse "I left my fear behind me"
e|-----------------------------------------------------------------------|
B|-----------------------------------------------------------------------|
G|-----------------------------------------------------------------------| x4
D|-----------------------------------------------------------------------|
A|-----------------------------------4-4-4-4-4-4-4-----------------------|
E|-5-5-5-5-5-5-5-5-5-5-5-5-5-5-5-5-----------------0--2-2-2-2--4-4-4-4--|

Chorus "We can't go"
e|--------------------------------------------------------------------|
B|--------------------------------------------------------------------|
G|--5-5-5-5-5-5-5-5--4-4-4-4-4-4-4-4--2-2-2-2-2-2-2-2-----------------|x2
D|--5-5-5-5-5-5-5-5--4-4-4-4-4-4-4-4--2-2-2-2-2-2-2-2--3-3-3-3-3-3-3-3|
A|--3-3-3-3-3-3-3-3--2-2-2-2-2-2-2-2--0-0-0-0-0-0-0-0--3-3-3-3-3-3-3-3|
E|-----------------------------------------------------1-1-1-1-1-1-1-1|


e|---------------------|
B|---------------------|
G|---------------------|
D|---------------------|
A|---------------------|
E|--55-55-555-5555555--|


e|----------------------------------------|
B|----------------------------------------|
G|--2-2-2--6-6-6---------2-2-2------------| x2
D|--2-2-2--6-6-6--6-6-6--2-2-2--6-6--2-2--|
A|--0-0-0--4-4-4--6-6-6--0-0-0--6-6--2-2--|
E|----------------4-4-4---------4-4--0-0--|
[ Tab from: http://www.guitartabs.cc/tabs/b/box_car_racer/all_systems_go_tab_ver_2.html ]
Verse "when will this be over"
e|---------------------------------------------------------------------|
B|---------------------------------------------------------------------|
G|---------------------------------------------------------------------| x4
D|---------------------------------------------------------------------|
A|----------------------------------4-4-4-4-4-4-4----------------------|
E|-5-5-5-5-5-5-5-5-5-5-5-5-5-5-5-5-----------------0--2-2-2-2--4-4-4-4|

e|---------------------|
B|---------------------|
G|---------------------|
D|---------------------|
A|---------------------|
E|--55-55-555-5555555--|

e|--------------------------------------------------------------------|
B|--------------------------------------------------------------------|
G|--5-5-5-5-5-5-5-5--4-4-4-4-4-4-4-4--2-2-2-2-2-2-2-2----------------| x4
D|--5-5-5-5-5-5-5-5--4-4-4-4-4-4-4-4--2-2-2-2-2-2-2-2--3-3-3-3-3-3-3-3|
A|--3-3-3-3-3-3-3-3--2-2-2-2-2-2-2-2--0-0-0-0-0-0-0-0--3-3-3-3-3-3-3-3|
E|-----------------------------------------------------1-1-1-1-1-1-1-1|

Interlude

E|--------------------|
B|--------------------|
G|--------------------|7x
D|--------------------|
A|--------------------|
E|--55-44-55-44-5544--|  

Other people were saying to bend the E on the 5th fret...but this sounds better

E|------|
B|------|
G|------|
D|--7~--|
A|--7~--|
E|--5~--|

e|--------------------------------------------------------------------|
B|--------------------------------------------------------------------|
G|--5-5-5-5-5-5-5-5--4-4-4-4-4-4-4-4--2-2-2-2-2-2-2-2-----------------| x4
D|--5-5-5-5-5-5-5-5--4-4-4-4-4-4-4-4--2-2-2-2-2-2-2-2--3-3-3-3-3-3-3-3| 
A|--3-3-3-3-3-3-3-3--2-2-2-2-2-2-2-2--0-0-0-0-0-0-0-0--3-3-3-3-3-3-3-3|
E|-----------------------------------------------------1-1-1-1-1-1-1-1|

e|----------------------------------------|
B|----------------------------------------|
G|--2-2-2--6-6-6---------2-2-2------------| x3
D|--2-2-2--6-6-6--6-6-6--2-2-2--6-6--2-2--|
A|--0-0-0--4-4-4--6-6-6--0-0-0--6-6--2-2--|
E|----------------4-4-4---------4-4--0-0--|

e|--------------------------|
B|--------------------------|
G|--2-2-2--6-6-6---------2--| 
D|--2-2-2--6-6-6--6-6-6--2--|
A|--0-0-0--4-4-4--6-6-6--0--|
E|----------------4-4-4-----|
Comments