Bowling For Soup - Where To Begin Chords & Tabs

 

Where To Begin Chords & Tabs

Bowling For Soup Chords & Tabs

Version: 2 Type: Tab

Where To Begin Tab

Bowling for Soup - Where to Begin
-----------------------------------

From the album "Drunk Enough to Dance"

Tabbed By: Marck Meng (http://www.warning-system.tk)

OK guys..i can't find a tab for the song "Where to Begin" in all the web..so i've
decided to tab this myself! I hope you enjoy! It was a hard work.....

I think this is quite correct..I have tried to use the tab with the original song in
background and it's perfect!


Solo
|---------------------------5------5-------------------------------|
|-5------5-----5-----5------5------5----5-----5------5----5------5-|
|---7------7-----7-----7------7------7----7-----7------7----7----6-|
|-----7------7-----------7------7-----------7-----7-----------7--7-|
|------------------------------------------------------------------|
|------------------------------------------------------------------|

Riff:
|----------------------------------------------------------------|
|-7-5-5-3-3------7-7-5-5-3-3------7-7-5-5-3-3------2-2-----5-3---|
|-----------2-2--------------2-2-------------2-2-------2-2-------|
|----------------------------------------------------------------|
|----------------------------------------------------------------|
|----------------------------------------------------------------|


Intro:

e|---------------------------------------|x2
B|---------------------------------------|
G|-777777--------------------------------|
D|-777777--777777--555555--777777--------|   
A|-555555--777777--555555--777777--------|  
E|---------555555--333333--555555--------|   


Verse:
e|---------------------------------------|
B|---------------------------------------|
G|-7~------------------------------------|
D|-7~-----------5~-----------------------|   
A|-5~-----------5~-----------------------|  
E|--------------3~-----------------------|   

e|---------------------------------------|
B|---------------------------------------|
G|-7~------------------------------------|
D|-7~-----------5~-------77777-----------|   
A|-5~-----------5~-------77777-----------|  
E|--------------3~-------55555-----------|   

[ Tab from: http://www.guitartabs.cc/tabs/b/bowling_for_soup/where_to_begin_tab_ver_2.html ]
Pre-Chorus:
e|---------------------------------------|
B|---------------------------------------|
G|-77------------------------------------|
D|-77-----------77---------444444444-----|   
A|-55-----------77---------444444444-----|  
E|--------------55---------222222222-----|   

e|---------------------------------------|
B|---------------------------------------|
G|-7777777777----------------------------|
D|-7777777777----77777777777-------------|   
A|-5555555555----77777777777-------------|  
E|---------------55555555555-------------|   

Chorus:

e|---------------------------------------|x2
B|---------------------------------------|
G|-777777--------------------------------|
D|-777777--777777--555555--777777--------|   
A|-555555--777777--555555--777777--------|  
E|---------555555--333333--555555--------|   

Riff: (guitar 2)
|----------------------------------------------------------------|
|-7-5-5-3-3------7-7-5-5-3-3------7-7-5-5-3-3------2-2-----5-3---|
|-----------2-2--------------2-2-------------2-2-------2-2-------|
|----------------------------------------------------------------|
|----------------------------------------------------------------|
|----------------------------------------------------------------|

Variation:
e|-------------------------------------|
B|-------------------------------------|
G|-------------------------------------|
D|-7xxxxxxxx-7x-7-7-7---2xxxxxxxxx-----|   
A|-7xxxxxxxx-7x-7-7-7---2xxxxxxxxx-----|  
E|-5xxxxxxxx-5x-5-5-5---0xxxxxxxxx-----|  

e|-------------------------------------|
B|-------------------------------------|
G|-------------------------------------|
D|-444444--555555--777777--------------|   
A|-444444--555555--777777--------------|  
E|-222222--333333--555555--------------|  

Chorus:

e|---------------------------------------|x4
B|---------------------------------------|
G|-777777--------------------------------|
D|-777777--777777--555555--777777--------|   
A|-555555--777777--555555--777777--------|  
E|---------555555--333333--555555--------|   


Riff: (guitar 2)
|----------------------------------------------------------------|
|-7-5-5-3-3------7-7-5-5-3-3------7-7-5-5-3-3------2-2-----5-3---|
|-----------2-2--------------2-2-------------2-2-------2-2-------|
|----------------------------------------------------------------|
|----------------------------------------------------------------|
|----------------------------------------------------------------|