Bowling For Soup - Two-seater Chords & Tabs

 

Two-seater Chords & Tabs

Bowling For Soup Chords & Tabs

Version: 1 Type: Tab 0 ratings
1 star 2 stars 3 stars 4 stars 5 stars
comments

Two-seater Tab

   
Artist: Bowling for Soup
Song: Two-Seater
Album: A Hangover You Don't Deserve
Tabbed By: Masen
Comments: allright, this is my first tab and it sounds right to me.
so here we go

Verse:
   1 & 2 & 3 & 4 & ...etc
e|-----------------------------------------------------------------|
B|-----------------------------------------------------------------|
G|-5-5-5-5-5-5-5-5-------------------------------------------------|
D|-5-5-5-5-5-5-5-5-5-5-5-5-5-5-5-5-7-7-7-7-7-7-7-7-3-3-3-3-3-3-3-3-|
A|-3-3-3-3-3-3-3-3-5-5-5-5-5-5-5-5-7-7-7-7-7-7-7-7-3-3-3-3-3-3-3-3-|
E|-----------------3-3-3-3-3-3-3-3-5-5-5-5-5-5-5-5-1-1-1-1-1-1-1-1-|
   . . . . . . . . . . . . . . . . . . . . . . . . . . . . . . . .  
   ^Palm Mute
      "I wanna wake up in your arms, i wanna set off your alarm"

PreChourus:
   1 & 2 & 3 & 4 & ...etc
e|-----------------------------------------------------------------|
B|-----------------------------------------------------------------|
G|-5---5---5---5---------------------------------------------------|
D|-5---5---5---5---5---5---5---5---7---------------3---------------|
A|-3---3---3---3---5---5---5---5---7---------------3---------------|
E|-----------------3---3---3---3---5---------------1---------------|
   Play Choppy lift your hand after every strum except the last 2
	"And every time you look in your rear view mirror, i hope..."
[ Tab from: http://www.guitartabs.cc/tabs/b/bowling_for_soup/two_seater_tab.html ]
Chorus:
   1 & 2 & 3 & 4 & ...etc
e|-----------------------------------------------------------------|
B|-----------------------------------------------------------------|
G|-5---5---5---5---------------------------------------------------|
D|-5---5---5---5---5---5---5---5---7---7---7---7---3---3---3---3---|
A|-3---3---3---3---5---5---5---5---7---7---7---7---3---3---3---3---|
E|-----------------3---3---3---3---5---5---5---5---1---1---1---1---|
	"I hope you like your two-seater, no radio, keymarks..."

PostChorus:
   1 & 2 & 3 & 4 & ...etc
e|-----------------------------------------------------------------|
B|-----------------------------------------------------------------|
G|-5-5-5---5-5-5---------------------------------------------------|
D|-5-5-5---5-5-5---5-5-5---5-5-5---7-7-7---7-7-7---3-3-3---3-3-3---|
A|-3-3-3---3-3-3---5-5-5---5-5-5---7-7-7---7-7-7---3-3-3---3-3-3---|
E|-----------------3-3-3---3-3-3---5-5-5---5-5-5---1-1-1---1-1-1---|

Bridge:
   1 & 2 & 3 & 4 &
e|-----------------------------------------------------------------|
B|-----------------------------------------------------------------|
G|-5---------------------------------------------------------------|
D|-5---------------5---------------7---------------3-----------3-3-|
A|-3---------------5---------------7---------------3-----------3-3-|
E|-----------------3---------------5---------------1-----------1-1-|
	"Can you hear your radio...bet u cant hear your radio"

Layout:
Verse x4
Prechorus x2
Chorus x2
PostChorus x2
Verse x4
PreChorus x2
Chorus x2
Bridge x4
Chorus x5
PostChorus x1
Comments