Bowling For Soup - The Bitch Song Chords & Tabs

 

The Bitch Song Chords & Tabs

Bowling For Soup Chords & Tabs

Version: 1 Type: Tab 0 ratings
1 star 2 stars 3 stars 4 stars 5 stars
comments

The Bitch Song Tab

   
##################################################################################
# This file is the author's own work and represents their interpretation of the  #
# song. You may only use this file for private study, scholarship, or research.  #
##################################################################################

-Bowling For Soup-
   -The Bitch Song-
-Tabbed By Ryan Gregg-

About:
Very simple to play.  Enjoy.

Tunning:
Standard (eBGDAE)

Intro | Distortion:
Guitar 1:
e|--------------------------------------------------|
B|--------------------------------------------------|
G|--------------------------7-----------------------|
D|-5------------------------7-(pull off)------------|
A|-5-(pull off)-------------5-----------------------|
E|-3------------------------------------------------|

e|--------------------------------------------------|
B|--------------------------------------------------|
G|-5------------------------------------------------|
D|-5-(hold)-----------------------------------------|
A|-3------------------------------------------------|
E|--------------------------------------------------|

e|--------------------------------------------------|
B|--------------------------------------------------|
G|--------------------------7-----------------------|
D|-5------------------------7-(x8)------------------|
A|-5-(x8)-------------------5-----------------------|
E|-3------------------------------------------------|

e|--------------------------------------------------|
B|--------------------------------------------------|
G|-5------------------------------------------------|
D|-5-(x16)------------------------------------------|
A|-3------------------------------------------------|
E|--------------------------------------------------|

Guitar 2:
e|--------------------------------------------------|
B|--------------------------------------------------|
G|-12-12-12-14-14-14-12-12--11-11-11-12-12-12-14-14-|
D|--X--X--X--X--X--X--X--X---X--X--X--X--X--X--X--X-| X4
A|-10-10-10-12-12-12-10-10---9--9--9-10-10-10-12-12-|
E|--------------------------------------------------|


Riff 1 | Distortion:
Guitar 1:
e|--------------------------------------------------|
B|--------------------------------------------------|
G|-----------------7---------------5----------------|
D|-5---------------7-(pull off)----5-(hold)---------|
A|-5-(pull off)----5---------------3----------------|
E|-3------------------------------------------------|
                                            Guitar 2: Pick Slide
[ Tab from: http://www.guitartabs.cc/tabs/b/bowling_for_soup/the_bitch_song_tab.html ]
Riff 2 | Distortion:
Guitar 1:
e|--------------------------------------------------|
B|--------------------------------------------------|
G|-----------------7-7-------------5----------------|
D|-5-5-------------7-7-------------5-(hold)---------|
A|-5-5-------------5-5-5-(x12)-----3----------------|
E|-3-3-3-(x12)--------------------------------------|
       pm-----         pm-----              Guitar 2: Pick Slide


Riff 3 | Distortion:
Guitar 1:
e|--------------------------------------------------|
B|--------------------------------------------------|
G|-----------------7---------------5----------------|
D|-5---------------7-(x8)----------5-(x16)----------|
A|-5-(x8)----------5---------------3----------------|
E|-3------------------------------------------------|


Bridge | Distortion:
Guitar 1:
e|--------------------------------------------------|
B|--------------------------------------------------|
G|--------------------------------------------------|
D|-5------------------------------------------------| X1
A|-5-(hold)--------(pull off)-----------------------|
E|-3------------------------------------------------|
                                            Guitar 1: Pick Slide
e|--------------------------------------------------|
B|--------------------------------------------------|
G|-----------------7---------------5----------------|
D|-5---------------7-(x8)----------5-(x16)----------| X6
A|-5-(x8)----------5---------------3----------------|
E|-3------------------------------------------------|

e|--------------------------------------------------|
B|--------------------------------------------------|
G|-----------------7---------------5----------------|
D|-5-5-------------7-(x10)---------5-(hold)---------| X1
A|-5-5-------------5---------------3----------------|
E|-3-3----------------------------------------------|
                                            Guitar 2: Pick Slide
Guitar 2:
e|--------------------------------------------------|
B|--------------------------------------------------|
G|-4---------------2-------4-------0----------------|
D|--------------------------------------------------| X4
A|--------------------------------------------------|
E|--------------------------------------------------|


End | Distortion:
Guitar 1:
e|--------------------------------------------------|
B|--------------------------------------------------|
G|-----------------7---------------5----------------|
D|-5---------------7-(hold)--------5-(hold)---------|
A|-5-(hold)--------5---------------3----------------|
E|-3------------------------------------------------|

e|----------|
B|----------|
G|----------|
D|-5--------|
A|-5-(hold)-|
E|-3--------|

Comments