Bowling For Soup - Suckerpunch Chords & Tabs

 

Suckerpunch Chords & Tabs

Bowling For Soup Chords & Tabs

Version: 3 Type: Tab 0 ratings
1 star 2 stars 3 stars 4 stars 5 stars
comments

Suckerpunch Tab

   
-------------------------------------------------------------------------------
			     SUCKERPUNCH - Bowling for Soup
-------------------------------------------------------------------------------
Tabbed by: I_Evil
Email: Angels_dark_son@hotmail.com

This is such a kick ass song, shame the tabs already on U.G are not. So,
here's my try. I think i'm quite close with it as i've played using this tab
a few times and people say it sounds right. So here goes:

*listen to song for strumming. it's easy to pick up on*

Tuning: Standard: EADGBe

e|-------|
B|-------|
G|-----7-|  Intro. Repeat x4
D|-7-5-7-|
A|-7-5-5-|
E|-5-3---|

1st verse

e|---|             e|-------|                  e|-----|
B|---|             B|-------|                  B|-----|
G|---| Let Ring    G|-----7-| first time       G|---7-| rest of verse
D|-7-|             D|-5-7-7-|                  D|-7-7-|
A|-7-|             A|-5-7-5-|                  A|-7-5-|
E|-5-|             E|-3-5---|                  E|-5---|

Chorus, kinda bit :p

e|-----|
B|-----|
G|-4---|
D|-4-5-|
A|-2-5-|
E|---3-|

2nd verse intro

e|---------|
B|---------|
G|---6-7---|  Intro. Repeat x2
D|-7-6-7-5-|
A|-7-4-5-5-|
E|-5-----3-|

2nd verse

e|-------|     e|-----|
B|-------|     B|-----|
G|----x7-|     G|---7-|
D|-x7-x7-|     D|-7-7-|
A|-x7-x5-|     A|-7-5-|
E|-x5----|     E|-5---|

Back to Chorus bit

e|-----|
B|-----|
G|-4---|
D|-4-5-|
A|-2-5-|
E|---3-|

Middle part:

e|-------|
B|-------|
G|---4-2-|
D|-2-4-2-|
A|-2-2-0-|
E|-0-----|
[ Tab from: http://www.guitartabs.cc/tabs/b/bowling_for_soup/suckerpunch_tab_ver_3.html ]
*this is the only part i'm not sure about. It sounds right but not 100% sure it's these chords*

Guitar 2:

e|---------|
B|---------|
G|---6-7-7-| hit each note twice and repeat
D|-7-------|
A|---------|
E|---------|

e|---------|
B|---------|
G|-6-7-6-9-|
D|---------|
A|---------|
E|---------|

e|---------|
B|---------|
G|---6-7-7-| hit each note twice and repeat
D|-7-------|
A|---------|
E|---------|

e|---------|
B|-5-6-3---|
G|-------4-| let last note ring and repeat x 5
D|---------|
A|---------|
E|---------|

3rd Verse

e|-----|           e|-----|
B|-----|           B|-----|
G|---9-|           G|-6---|
D|-9-9-|           D|-6-5-|
A|-9-7-|           A|-4-5-|   
E|-7---|           E|---3-|

Back to middle part:

e|-------|
B|-------|
G|---4-2-|
D|-2-4-2-|
A|-2-2-0-|
E|-0-----|

*again, read the ** note above above*

Guitar 2:

e|---------|
B|---------|
G|---6-7-7-| hit each note twice and repeat
D|-7-------|
A|---------|
E|---------|

e|---------|
B|-10-9----|
G|------10-|
D|---------|
A|---------|
E|---------|

e|---------|
B|---------|
G|---6-7-7-| hit each note twice and repeat
D|-7-------|
A|---------|
E|---------|

Last bit:

e|---------|
B|---------|
G|---8-9---| repeat till end of song
D|-9-8-9-7-|
A|-9-6-7-7-|
E|-7-----5-|

And that's it. the key is below.

| /  slide up
| \  slide down
| h  hammer-on
| p  pull-off
| ~  vibrato
| +  harmonic
| x  Mute note
===============================================================================

If you have any questions or problems with the tab, you can e-mail me at:

Angels_dark_son@hotmail.com.

Hope you enjoy use this tab. Any parts that you think are wrong, please contact
me.
Comments