Bowling For Soup - Suckerpunch Chords & Tabs

 

Suckerpunch Chords & Tabs

Bowling For Soup Chords & Tabs

Version: 1 Type: Chords 0 ratings
1 star 2 stars 3 stars 4 stars 5 stars
comments

Suckerpunch Chords

   
##################################################################################
# This file is the author's own work and represents their interpretation of the  #
# song. You may only use this file for private study, scholarship, or research.  #
##################################################################################
Bowling For Soup - Suckerpunch


Tabbed By Rob Semmeling (smashedout@hotmail.com) on June 22nd 2001

Played with 2 guitars
I'm not sure about Bridge 2
Chords used:
 
    e  Eb   e   A   A   B   C   C#  D
e-|---------------------------------------------
B-|---------------------------------------------
G-|-----8---9-------2-------5---6---7-----------
D-|-2---8---9---7---2---9---5---6---7-----------
A-|-2---6---7---7---0---9---3---4---5-----------
E-|-0-----------5-------7-----------------------

---------
Intro
---------

A  B C  G A (4x)
A (Let ring)

---------
Verse 1
---------

(n.c.)
Here she comes again with another boyfriend 
Introduces me and says
This is the sweetest guy I've ever known 

---------
Verse 2
---------

---------
Bridge 1
---------

A  C# D  G A

---------
Verse 3
---------

---------
Chorus:
---------
[ Tab from: http://www.guitartabs.cc/tabs/b/bowling_for_soup/suckerpunch_crd.html ]
e                B                    A
   When you left before I didn't care too much 
e               B               A
   Cause I just wished you'd go away 
e                B                 A
   And I see you now and it's just too much 
e           B      A      e  (n.C.)                D (Let ring)
   Takes my breath away...Just like a suckerpunch.......

Note: There's also a little riff in the chorus 
      (played by Guitar 2), but I don't know it.


---------
Bridge 2:
---------

Guitar 1:

     D  Eb  D  C  A       C#   D
e-|------------------------------------------------
B-|------------------------------------------------
G-|--7/-8\-7\-5\-2-2-2-2/-6-6/-7-7-7---------------
D-|--7/-8\-7\-5\-2-2-2-2/-6-6/-7-7-7---(3x)--------
A-|--5/-6\-5\-3\-0-0-0-0/-4-4/-5-5-5---------------
E-|------------------------------------------------

Guitar 2:

e-|-----------------------------------------------
B-|-----------------------------------------------
G-|--7/-8\-7\-5\-2-2-2-2/-5-5/-7-7-7--------------
D-|--7/-8\-7\-5\-2-2-2-2/-5-5/-7-7-7--------------
A-|-----------------------------------------------
E-|-----------------------------------------------

------------
Verse 4 & 5
------------

---------
Chorus
---------

---------
Outro:
---------

B  Eb  e  G  B

(End on B)


Comments