Bowling For Soup - Shut Up And Smile Chords & Tabs

 

Shut Up And Smile Chords & Tabs

Bowling For Soup Chords & Tabs

Version: 1 Type: Tab 0 ratings
1 star 2 stars 3 stars 4 stars 5 stars
comments

Shut Up And Smile Tab

			     Bowling For Soup- Shut up and Smile
-----------------------------------------------------------------------------
Tabbed by: draino231
Album: A Hangover You Don't Deserve

Tuning: Drop D
d= down stroke
u= up stroke

Guitar 1- Intro/Outro Piano thingy

e|----14-12-----|
B|-15-----------|
G|----------14--| x4
D|--------------|
A|--------------|
D|--------------|

Guitar 2- Intro (it's the deeper sound of the piano)

e|-------------------------------------------------------|
B|-------------------------------------------------------|
G|-7----777---77-7----777---77-7-------------------------|
D|-7----777---77-5----555---55-7-------------------------|
A|-5----555---55-7----777---77-5-------------------------|
D|-------------------------------------------------------|
   d    dud   du d    dud   du d

Guitars- Intro cont'd/Verse/Outro (on intro there's a slide thing before this)
e|-------------------------------------------------------|
B|-------------------------------------------------------|
G|-------------4-----------------------------------------|
D|-0-----4-----4-x7--2----4-0-|--then------5-7-----------|
A|-0-x7--4-x7--2-----2-x7-4-0-|(end on)->>-5-7-----------|
D|-0-----4-----------2----4-0-|------------5-7-----------|

Chorus Guitar 1
slide thingy again before chorus

e|----14-12-----|
B|-15-----------|
G|----------14--| throughout chorus
D|--------------|
A|--------------|
D|--------------|

Chorus- Guitar 2
[ Tab from: http://www.guitartabs.cc/tabs/b/bowling_for_soup/shut_up_and_smile_tab.html ]
e|-------------------------------------------------------|
B|-------------------------------------------------------|
G|-7-----7-----------------------------------------------|
D|-7-x16-5-x16---2-----5-------2-----5----7--------------|
A|-5-----7-------2-x16-5-x16---2-x16-5-x8-7-x6-----------|
D|---------------2-----5-------2-----5----7--------------|

Breakdown-
Guitar 1 with weird effects

e|----|
B|----|
G|-7--|
D|-7--|(pretty much does that throughout effect part)
A|-5--|
D|----|

Guitar 2- It's really a bass guitar playing but this sounds ok on mine

e|-------------------------------------------------------|
B|-------------------------------------------------------|
G|-------------------------------------------------------|
D|------------------------------------------|-(end on)---|
A|-5-5-5-5-5--------------------------------|------------|
D|-----------9-9-9-9-9-5-5-5-5-5-7-7-7-7-7--|--7-9-10-11-|

Breakdown: after weird effects part "can't we all just"

e|------------------------------------------------------|
B|------------------------------------------------------|
G|-7----------------------------------------------------|
D|-7-x8--9-----5-----7----------------------------------| repeat as needed
A|-5-----9-x8--5-x8--7-x8-------------------------------|
D|-------9-----5-----7----------------------------------|

Chorus

Outro- "all we need is love and beer"

Guitar 1

e|----14-12-----|
B|-15-----------|
G|----------14--| repeat as needed
D|--------------|
A|--------------|
D|--------------|

Guitar 2

e|-----------------------------|
B|-----------------------------|
G|-------------4---------------|
D|-0-----4-----4-x7--2----4-0--|
A|-0-x7--4-x7--2-----2-x7-4-0--|
D|-0-----4-----------2----4-0--| repeat as needed

Guitar 3

e|-------------------------------------------------------|
B|-------------------------------------------------------|
G|-------------------------------------------------------|
D|--0-----4-----5-----7----------------------------------|
A|--0-x7--4-x7--5-x7--7-x7-------------------------------|
D|--0-----4-----5-----7----------------------------------|
Comments