Bowling For Soup - Sad Sad Situation Chords & Tabs

 

Sad Sad Situation Chords & Tabs

Bowling For Soup Chords & Tabs

Version: 1 Type: Tab 0 ratings
1 star 2 stars 3 stars 4 stars 5 stars
comments

Sad Sad Situation Tab

---------------------------------------------------------------------------
			     SONG NAME - Band Name
---------------------------------------------------------------------------
Tabbed by:jake
Email:short_good@hotmail.com

Tuning:standard

e|------------------------------------------------------------------------|
B|------------------------------------------------------------------------|
G|------------------77777------------------777777----------777777---------|
D|--7--77777777777--77777--777777--777777--777777--777777--777777---------|
A|--7--77777777777--55555--777777--777777--555555--777777--555555---------|
E|--5--55555555555---------555555--555555----------555555-----------------|
       pm.........                 ......

e|------------------------------------------------------------------------|
B|------------------------------------------------------------------------|
G|-----------7777777------------5~--5-------------------------------------|
D|--7777777--7777777--7777777---5~-----5----------------------------------|
A|--7777777--5555555--7777777---3~----------------------------------------| 
E|--5555555-----------5555555---------------------------------------------|

chorus                                                       x2
e|------------------------------------------------------------------------|
B|------------------------------------------------------------------------|
G|--------------------------------------77777777777-----------------------|
D|--77777777--10101010101010--55555555--77777777777-----------------------|
A|--77777777--10101010101010--55555555--55555555555-----------------------|
E|--55555555---8-8-8-8-8-8-8--33333333------------------------------------|

e|----------------------------------------------------------------------|
B|----------------------------------------------------------------------|
G|------------777-------------777777------------------777777------------|
D|--7--77777--777--7--777777--777777--7--77777777777--777777--7777777---|
A|--7--77777--555--7--777777--555555--7--77777777777--555555--7777777---|   
E|--5--55555-------5--555555----------5--55555555555----------5555555---|
       pm...          ......             ...........


e|------------------------------------------------------------------------|
B|------------------------------------------------------------------------|
G|--777777-----------7777777------------5~-5------------------------------|
D|--777777--7777777--7777777--7777777---5~----5---------------------------|
A|--555555--7777777--5555555--7777777---3~--------------------------------|
E|----------5555555-----------5555555-------------------------------------|
[ Tab from: http://www.guitartabs.cc/tabs/b/bowling_for_soup/sad_sad_situation_tab.html ]
chorus                                                       x2
e|------------------------------------------------------------------------|
B|------------------------------------------------------------------------|
G|--------------------------------------77777777777-----------------------|
D|--77777777--10101010101010--55555555--77777777777-----------------------|
A|--77777777--10101010101010--55555555--55555555555-----------------------|
E|--55555555---8-8-8-8-8-8-8--33333333------------------------------------|

e|------------------------------------------------------------------------|
B|------------------------------------------------------------------------|
G|-------------7777-------------5-----5---------4~---------------4~-------|
D|--7--777777--7777--7--77777---5--5--5--3--4~--4~--2~--7-6--4~--4~-2~-7-6|
A|--7--777777--5555--7--77777---3--5--3--3--4~--2~--2~--7-6--4~--2~-2~-7-6|
E|--5--555555--------5--55555------3-----1--2~------0~--5-4--2~-----0~-5-4|
       ......           .....

e|------------------------------------------------------------------------|
B|------------------------------------------------------------------------|
G|------------4444444------------------------------4444444---7777777777---|
D|-4--444444--4444444--222222--7777--6666--444444--4444444---7777777777---|
A|-4--444444--2222222--222222--7777--6666--444444--2222222---5555555555---|
E|-2--222222-----------000000--5555--4444--222222-------------------------|
      ......................................................

chorus                                                      
e|------------------------------------------------------------------------|
B|------------------------------------------------------------------------|
G|--------------------------------------77777777777-----------------------|
D|--77777777--10101010101010--55555555--77777777777-----------------------|
A|--77777777--10101010101010--55555555--55555555555-----------------------|
E|--55555555---8-8-8-8-8-8-8--33333333------------------------------------|

chorus                                                     
e|------------------------------------------------------------------------|
B|------------------------------------------------------------------------|
G|--------------------------------------7-7-7-7-7-------------------------|
D|--77777777--10101010101010--55555555--7-7-7-7-7-------------------------|
A|--77777777--10101010101010--55555555--5-5-5-5-5-------------------------|
E|--55555555---8-8-8-8-8-8-8--33333333------------------------------------|

                                                     x2
e|------------------------------------------------------------------------|
B|------------------------------------------------------------------------|
G|--------------------------------------77777777777-----------------------|
D|--77777777--10101010101010--55555555--77777777777-----------------------|
A|--77777777--10101010101010--55555555--55555555555-----------------------|
E|--55555555---8-8-8-8-8-8-8--33333333------------------------------------|

e|------------------------------------------------------------------------|
B|------------------------------------------------------------------------|
G|-------------777--------------777---5-----5-----------------------------|
D|--777777777--777--7777777777--777---5--5--5--3--4~----------------------|
A|--777777777--555--7777777777--555---3--5--3--3--4~----------------------|
E|--555555555-------5555555555-----------3-----1--2~----------------------|

there u go!! this is my first tab so ya
===============================================================================
Comments