Bowling For Soup - Punk Rock 101 Chords & Tabs

 

Punk Rock 101 Chords & Tabs

Bowling For Soup Chords & Tabs

Version: 1 Type: Bass Tab 0 ratings
1 star 2 stars 3 stars 4 stars 5 stars
comments

Punk Rock 101 Bass Tab

-------------------------------------------------------------------------------
		Bowling For Soup - Punk Rock 101                                
------------------------------------------------------------------------------

Tabbed By : big dave
e-mail: ihatehearsay@hotmail.com

Tuning:EADG

Intro
G|---------------------------------------------------------------------------|
D|---------------------------------------------------------------------------|
A|---------------------------------------------------------------------------|
E|-1-2-3*--1-2-3*--2-2-2-2-4-4-4-4-6-6-6-6-6-6-6-6-x2------------------------|
    *=let ring
[ Tab from: http://www.guitartabs.cc/tabs/b/bowling_for_soup/punk_rock_101_btab.html ]
Verse
G|---------------------------------------------------------------------------|
D|---------------------------------------------------------------------------|
A|---------------------------------------------------------------------------|
E|-2-2-2-2-4-4-4-4-6-6-6-6-6-6-6-6-2*----------------------------------------|x4

Chorus
G|---------------------------------------------------------------------------|
D|---------------------------------------------------------------------------|
A|-------------------------2-2-2-2-------------------------------------------|
E|-2-2-2-2-4-4-4-4-6-6-6-6---------------------------------------------------|x4

Bridge
G|---------------------------------------------------------------------------|
D|---------------------------------------------------------------------------|
A|-------------2-------------------------------------------------------------|
E|-2---4---6-----------------------------------------------------------------|x2


And dat my friends is it. Email @ d top
Comments