Bowling For Soup - Out The Window Chords & Tabs

 

Out The Window Chords & Tabs

Bowling For Soup Chords & Tabs

Version: 1 Type: Tab 0 ratings
1 star 2 stars 3 stars 4 stars 5 stars
comments

Out The Window Tab

Out The Window
by Bowling For Soup
Tabed by (dinsol's)

Intro 1: 

|--------------|---------------------------------------|
|--------------|---------------------------------------|
|--5--5--5--5--|--5-5--55-5-5--1010-10-10--------------|
|--5--5--5--5--|--5-5--55-5-5--1010-10-10-55-5-5--(2x)-|
|--3--3--3--3--|--3-3--33-3-3--8-8--8--8--55-5-5-------|
|--------------|--------------------------33-3-3-------|
   x  x  x  x          xx      x x         xx

Intro 11:

Guitar 1                                        Guitar 2
|-----------------------------------------|------------------------------------------|
|-----------------------------------------|-------5-6-7-------------55h6p5-----------|
|--5-5--55-5-5--1010-10-10----------------|-------------55555-44455------------------|
|--5-5--55-5-5--1010-10-10--55-5-5---(2x)-|------------------------------------(2x)--|
|--3-3--33-3-3--8-8--8--8---55-5-5--------|------------------------------------------|
|---------------------------33-3-3--------|------------------------------------------|
        xx      x x         xx

Verse: Guitar 1 & 2

|-----------------------------------------|
|-----------------------------------------|
|--5-5--55-5-5--1010-10-10----------------|  repeat 4x
|--5-5--55-5-5--1010-10-10--55-5-5--------|
|--3-3--33-3-3--8-8--8--8---55-5-5--------|
|---------------------------33-3-3--------|


Chorus:

|------------------------|
|------------------------|
|-5555555----------------|  repeat 4x
|-5555555-3333-5555------|
|-3333333-3333-5555------|
|---------1111-3333------|
[ Tab from: http://www.guitartabs.cc/tabs/b/bowling_for_soup/out_the_window_tab.html ]
repeat intro 11
repeat verse 
repeat chorus
rpeat intro 11

Bridge:

|-------------------------------------------------------|
|-------------------------------------------------------|
|------------------55-5555-55-5555-55-5555-55-5555------| repeat 2x
|--3333333-5555555-55-5555-55-5555-55-5555-55-5555------|
|--3333333-5555555-33-3333-33-3333-33-3333-33-3333------|
|--1111111-3333333--------------------------------------|
   ....... ....... .. .... .. .... .. ..

|---------------------------------------|
|---------------------------------------|
|------------------5555555--------------|
|--3333333-5555555-5555555-7777777------| repeat 2x
|--3333333-5555555-3333333-7777777------|
|--1111111-3333333---------5555555------|

continue...

|--------------------------|
|--------------------------|
|--------------------------|
|--3333333-5555555---------|
|--3333333-5555555---------|
|--1111111-3333333---------|

|---------------------------------------------------------------------|
|---------------------------------------------------------------------|
|-5-5--55-5-5--1010-10-10----------5-5--55-5-5--1010-10-10------------|
|-5-5--55-5-5--1010-10-10--55-5-5--5-5--55-5-5--1010-10-10--55555-----|
|-3-3--33-3-3--8-8--8--8---55-5-5--3-3--33-3-3--8-8--8--8---55555-----|
|--------------------------33-3-3---------------------------33333-----|
       xx      x x         xx           xx      x x         .....

repeat chorus and then (pause)
after 4 seconds repeat chorus

mute = xxxx
palm mute = .....

this 99.9% percent correct tab.
enjoy!!!!
by dinsol's 

If you have any question about this tab just email at dinsols_666@yahoo.com
Comments