Bowling For Soup - Ohio Come Back To Texas Chords & Tabs

 

Ohio Come Back To Texas Chords & Tabs

Bowling For Soup Chords & Tabs

Version: 3 Type: Tab 0 ratings
1 star 2 stars 3 stars 4 stars 5 stars
comments

Ohio Come Back To Texas Tab

"Ohio (Come Back to Texas)" by Bowling for Soup
TAB by Aaron Prescott

Good Song.  I'm not quite sure about the acoustic guitar part in the bridge.
It's something like that.  Just play E, B, F#, and G#m chords, and you'll get it.  
I know that some of the movement in that part of the bridge is done by the bass.

Key to TAB Symbols
P.M.  Palm Mute
x     Muted Note
\     Slide Down

Guitar 1 (Distorted): Standard Tuning
Guitar 2 (Acoustic): Standard Tuning

VERSE 1:
  "She said she needed a break ..."
  Guitar 1
E|-----------------|-----------------|-----------------|-----------------|-----------------|
B|-----------------|-----------------|-----------------|-----------------|-----------------|
G|-----------------|-----------------|-----------------|-----------------|-----------------|
D|-----------------|-4-4-4-4-4-4-4-4-|-4-4-4-4-4-4-4-4-|-----------------|-----------------|
A|-----------------|-2-2-2-2-2-2-2-2-|-2-2-2-2-2-2-2-2-|-2-2-2-2-2-2-2-2-|-2-2-2-2-2-2-2-2-|
E|-----------------|-----------------|-----------------|-0-0-0-0-0-0-0-0-|-0-0-0-0-0-0-0-0-|
                     P.M.- - - - - - - - - - - - - - - - - - - - - - - - - - - - - - - - - |

   "... Cleveland with some guy name Leland ..."
E|-----------------|-----------------|-----------------|-----------------|
B|-----------------|-----------------|-----------------|-----------------|
G|-----------------|-----------------|-----------------|-4---------------|
D|-6-6-6-6-6-6-6-6-|-----------------|-4-4-4-4-4-4-4-4-|-4---------------|
A|-4-4-4-4-4-4-4-4-|-4-4-4-4-4-4-4-4-|-2-2-2-2-2-2-2-2-|-2---------------|
E|-----------------|-2-2-2-2-2-2-2-2-|-----------------|-----------------|
   P.M.- - - - - - - - - - - - - - - - - - - - - - - - |
  
  "There's nothing wrong with Ohio ..."
E|-----------------|-----------------|-----0-----------|-----------------|
B|-----------------|-----------------|-----0-----------|-----------------|
G|-4-4-4-4-4-4-4-4-|-4-4-4-4-4-4-4-4-|-----x-----------|-----------------|
D|-4-4-4-4-4-4-4-4-|-4-4-4-4-4-4-4-4-|-2-2-2-2-2-2-2-2-|-2-2-2-2-2-2-2-2-|
A|-2-2-2-2-2-2-2-2-|-2-2-2-2-2-2-2-2-|-2-2-2-2-2-2-2-2-|-2-2-2-2-2-2-2-2-|
E|-----------------|-----------------|-0-0-0-0-0-0-0-0-|-0-0-0-0-0-0-0-0-|

  "...Drew Carey and I'd love to see ..."
E|-----------------|-----------------|-----------------|-----------------|
B|-----------------|-----------------|-----------------|-----------------|
G|-6-6-6-6-6-6-6-6-|-----------------|-4-4-4-4-4-4-4-4-|-4-4-4-4-4-4-4-4-|
D|-6-6-6-6-6-6-6-6-|-4-4-4-4-4-4-4-4-|-4-4-4-4-4-4-4-4-|-4-4-4-4-4-4-4-4-|
A|-4-4-4-4-4-4-4-4-|-4-4-4-4-4-4-4-4-|-2-2-2-2-2-2-2-2-|-2-2-2-2-2-2-2-2-|
E|-----------------|-2-2-2-2-2-2-2-2-|-----------------|-----------------|

PRECHORUS:
  "So when you're done ..."
E|-----0-----------|-----------------|-----0-----------|-----------------|
B|-----0-----------|-----------------|-----0-----------|-----------------|
G|-----x-----------|-4---4---4---4---|-----x-----------|-4---4---4---4---|
D|-2---2---2---2---|-4---4---4---4---|-2---2---2---2---|-4---4---4---4---|
A|-2---2---2---2---|-2---2---2---2---|-2---2---2---2---|-2---2---2---2---|
E|-0---0---0---0---|-----------------|-0---0---0---0---|-----------------|

  "... Denton County will be right here ..."
E|-----------------|-----------------|-----0-----0-0---|-0---------------|
B|-----------------|-----------------|-----0-----0-0---|-0---------------|
G|-----------------|-----------------|-----x-----x-x---|-x---------------|
D|-6-6-6-6-6-6-6-6-|-4-4-4-4-4-4-4-4-|-2-2-2-2-2-2-2-2-|-2---------------|
A|-6-6-6-6-6-6-6-6-|-4-4-4-4-4-4-4-4-|-2-2-2-2-2-2-2-2-|-2---------------|
E|-4-4-4-4-4-4-4-4-|-2-2-2-2-2-2-2-2-|-0-0-0-0-0-0-0-0-|-0---------------|

REFRAIN:
   A. "Come back to Texas"
   B. "... Lose your accent ..."
E||------0-------0---|-----0-------0---|-----------------|------------------||
B||------0-------0---|-----0-------0---|-----------------|------------------||
G||o-----x-------x---|-----x-------x---|-4-4-4-4-4-4-4-4-|-----------------o|| Play
D||o-2-2-2-2-2-2-2-2-|-2-2-2-2-2-2-2-2-|-4-4-4-4-4-4-4-4-|-4-4-4-4-4-4-4-4-o|| 2x
A||--2-2-2-2-2-2-2-2-|-2-2-2-2-2-2-2-2-|-2-2-2-2-2-2-2-2-|-4-4-4-4-4-4-4-4--||
E||--0-0-0-0-0-0-0-0-|-0-0-0-0-0-0-0-0-|-----------------|-2-2-2-2-2-2-2-2--||

  "... Seat for you at the rodeo ..."
E|-----------------|-----------------|-----------------|-----------------|
B|-----------------|-----------------|-----------------|-----------------|
G|-----------------|-----------------|-----------------|-4-4-4-4-4-4-4-4-|
D|-6-6-6-6-6-6-6-6-|-4-4-4-4-4-4-4-4-|-2-2-2-2-2-2-2-2-|-4-4-4-4-4-4-4-4-|
A|-6-6-6-6-6-6-6-6-|-4-4-4-4-4-4-4-4-|-2-2-2-2-2-2-2-2-|-2-2-2-2-2-2-2-2-|
E|-4-4-4-4-4-4-4-4-|-2-2-2-2-2-2-2-2-|-0-0-0-0-0-0-0-0-|-----------------|

  "... Mexican food sucks ..."
E|-----------------|-----------------|-----0-------0---|-----0-------0---|
B|-----------------|-----------------|-----0-------0---|-----0-------0---|
G|-6-6-6-6-6-6-6-6-|-----------------|-----x-------x---|-----x-------x---|
D|-6-6-6-6-6-6-6-6-|-4-4-4-4-4-4-4-4-|-2-2-2-2-2-2-2-2-|-2-2-2-2-2-2-2-2-|
A|-4-4-4-4-4-4-4-4-|-4-4-4-4-4-4-4-4-|-2-2-2-2-2-2-2-2-|-2-2-2-2-2-2-2-2-|
E|-----------------|-2-2-2-2-2-2-2-2-|-0-0-0-0-0-0-0-0-|-0-0-0-0-0-0-0-0-|

VERSE 2:
  "I think I made a mistake ..."
E|-----------------|-----------------|-----------------|-----------------|
B|-----------------|-----------------|-----------------|-----------------|
G|-----------------|-----------------|-----------------|-----------------|
D|-4-4-4-4-4-4-4-4-|-4-4-4-4-4-4-4-4-|-9-9-9-9-9-9-9-9-|-9-9-9-9-9-9-9-9-|
A|-2-2-2-2-2-2-2-2-|-2-2-2-2-2-2-2-2-|-7-7-7-7-7-7-7-7-|-7-7-7-7-7-7-7-7-|
E|-----------------|-----------------|-----------------|-----------------|
   P.M.- - - - - - - - - - - - - - - - - - - - - - - - - - - - - - - - - |

   "... Deposit, then she cleaned out her closet ..."
E|-----------------|-----------------|-----------------|-----------------|
B|-----------------|-----------------|-----------------|-----------------|
G|-----------------|-----------------|-----------------|-----------4-4-4-|
D|-6-6-6-6-6-6-6-6-|-----------------|-4-4-4-4-4-4-4-4-|-4-4-4-4-4-4-4-4-|
A|-4-4-4-4-4-4-4-4-|-4-4-4-4-4-4-4-4-|-2-2-2-2-2-2-2-2-|-2-2-2-2-2-2-2-2-|
E|-----------------|-2-2-2-2-2-2-2-2-|-----------------|-----------------|
   P.M.- - - - - - - - - - - - - - - - - - - - - - - - - - - - - -|
  
  "For her to come back home ..."
E|-----------------|-----------------|-----0-----------|-----------------|
B|-----------------|-----------------|-----0-----------|-----------------|
G|-4-4-4-4-4-4-4-4-|-4-4-4-4-4-4-4-4-|-9-9-9-9-9-9-9-9-|-9-9-9-9-9-9-9-9-|
D|-4-4-4-4-4-4-4-4-|-4-4-4-4-4-4-4-4-|-9-9-9-9-9-9-9-9-|-9-9-9-9-9-9-9-9-|
A|-2-2-2-2-2-2-2-2-|-2-2-2-2-2-2-2-2-|-7-7-7-7-7-7-7-7-|-7-7-7-7-7-7-7-7-|
E|-----------------|-----------------|-----------------|-----------------|
[ Tab from: http://www.guitartabs.cc/tabs/b/bowling_for_soup/ohio_come_back_to_texas_tab_ver_3.html ]
  "... I bet she misses the sunrise ..."
E|-----------------|-----------------|-----------------|-----------------|
B|-----------------|-----------------|-----------------|-----------------|
G|-6-6-6-6-6-6-6-6-|-----------------|-4-4-4-4-4-4-4-4-|-4-4-4-4-4-4-4-4-|
D|-6-6-6-6-6-6-6-6-|-4-4-4-4-4-4-4-4-|-4-4-4-4-4-4-4-4-|-4-4-4-4-4-4-4-4-|
A|-4-4-4-4-4-4-4-4-|-4-4-4-4-4-4-4-4-|-2-2-2-2-2-2-2-2-|-2-2-2-2-2-2-2-2-|
E|-----------------|-2-2-2-2-2-2-2-2-|-----------------|-----------------|

PRECHORUS:
  "So when you're done ..."
E|-----0-----------|-----------------|-----0-----------|-----------------|
B|-----0-----------|-----------------|-----0-----------|-----------------|
G|-----x-----------|-4---4---4---4---|-----x-----------|-4---4---4---4---|
D|-2---2---2---2---|-4---4---4---4---|-2---2---2---2---|-4---4---4---4---|
A|-2---2---2---2---|-2---2---2---2---|-2---2---2---2---|-2---2---2---2---|
E|-0---0---0---0---|-----------------|-0---0---0---0---|-----------------|

  "... Denton County will be right here ..."
E|-----------------|-----------------|-----0-----0-0---|-0---------------|
B|-----------------|-----------------|-----0-----0-0---|-0---------------|
G|-----------------|-----------------|-----x-----x-x---|-x---------------|
D|-6-6-6-6-6-6-6-6-|-4-4-4-4-4-4-4-4-|-2-2-2-2-2-2-2-2-|-2---------------|
A|-6-6-6-6-6-6-6-6-|-4-4-4-4-4-4-4-4-|-2-2-2-2-2-2-2-2-|-2---------------|
E|-4-4-4-4-4-4-4-4-|-2-2-2-2-2-2-2-2-|-0-0-0-0-0-0-0-0-|-0---------------|

REFRAIN:
   A. "Come back to Texas"
   B. "... Missed your exit ..."
E||------0-------0---|-----0-------0---|-----------------|------------------||
B||------0-------0---|-----0-------0---|-----------------|------------------||
G||o-----x-------x---|-----x-------x---|-4-4-4-4-4-4-4-4-|-----------------o|| Play
D||o-2-2-2-2-2-2-2-2-|-2-2-2-2-2-2-2-2-|-4-4-4-4-4-4-4-4-|-4-4-4-4-4-4-4-4-o|| 2x
A||--2-2-2-2-2-2-2-2-|-2-2-2-2-2-2-2-2-|-2-2-2-2-2-2-2-2-|-4-4-4-4-4-4-4-4--||
E||--0-0-0-0-0-0-0-0-|-0-0-0-0-0-0-0-0-|-----------------|-2-2-2-2-2-2-2-2--||

  "... Seat for you at the rodeo ..."
E|-----------------|-----------------|-----------------|-----------------|
B|-----------------|-----------------|-----------------|-----------------|
G|-----------------|-----------------|-----------------|-4-4-4-4-4-4-4-4-|
D|-6-6-6-6-6-6-6-6-|-4-4-4-4-4-4-4-4-|-2-2-2-2-2-2-2-2-|-4-4-4-4-4-4-4-4-|
A|-6-6-6-6-6-6-6-6-|-4-4-4-4-4-4-4-4-|-2-2-2-2-2-2-2-2-|-2-2-2-2-2-2-2-2-|
E|-4-4-4-4-4-4-4-4-|-2-2-2-2-2-2-2-2-|-0-0-0-0-0-0-0-0-|-----------------|

  "... Mexican food sucks ..."
E|-----------------|-----------------|-----0-------0---|-----0-------0---|
B|-----------------|-----------------|-----0-------0---|-----0-------0---|
G|-6-6-6-6-6-6-6-6-|-----------------|-----x-------x---|-----x-------x---|
D|-6-6-6-6-6-6-6-6-|-4-4-4-4-4-4-4-4-|-2-2-2-2-2-2-2-2-|-2-2-2-2-2-2-2-2-|
A|-4-4-4-4-4-4-4-4-|-4-4-4-4-4-4-4-4-|-2-2-2-2-2-2-2-2-|-2-2-2-2-2-2-2-2-|
E|-----------------|-2-2-2-2-2-2-2-2-|-0-0-0-0-0-0-0-0-|-0-0-0-0-0-0-0-0-|

BRIDGE:
   A. "Troy Aikman wants you back ..."
   B. "NASA wants you back ..."
   C. "Pantera wants you back ..." (with "La la la la ...")
E||------------------|-----------------|-----------------|------------------||
B||------------------|-----------------|-----------------|------------------||
G||o-----------------|-----------------|-----------------|-----------------o|| Play
D||o-9-9-9-9-9-9-9-9-|-9-9-9-9-9-9-9-9-|-----------------|-----------------o|| 3x
A||--7-7-7-7-7-7-7-7-|-7-7-7-7-7-7-7-7-|-9-9-9-9-9-9-9-9-|-9-9-9-9-9-9-9-9--||
E||------------------|-----------------|-7-7-7-7-7-7-7-7-|-7-7-7-7-7-7-7-7--||
     P.M.- - - - - - - - - - - - - - - - - - - - - - - - - - - - - - - - -|

  "I've got a premonition ..."
E|-----------------|-----------------|-----------------|-----------------|-----------------|
B|-----------------|-----------------|-----------------|-----------------|-----------------|
G|-----------------|-----------------|-----------------|-----------------|-----------------|
D|-6-6-6-6-6-6-6-6-|-4-4-4-4-4-4-4-4-|-2-2-2-2-2-2-2-2-|-4-4-4-4-4-4-4-4-|-4\--------------|
A|-6-6-6-6-6-6-6-6-|-4-4-4-4-4-4-4-4-|-2-2-2-2-2-2-2-2-|-4-4-4-4-4-4-4-4-|-4\--------------|
E|-4-4-4-4-4-4-4-4-|-2-2-2-2-2-2-2-2-|-0-0-0-0-0-0-0-0-|-2-2-2-2-2-2-2-2-|-2\--------------|

   Guitar 2
   Swing Eighths
   A. "Come back to Texas ..."
   B. "... Lose your accent ..."
E||------0-0-----0---|-----0-0-----0---|-----------------|-----2-2-----2----||
B||------0-0-----0---|-----0-0-----0---|-----4-4-----4---|-----2-2-----2----||
G||o-----1-1-----1---|-----1-1-----1---|-----4-4-----4---|-----3-3-----3---o||
D||o-----2-2-----2---|-----2-2-----2---|---4-4-4-4---4-4-|-----4-4-----4---o||
A||----2-----2-----2-|---2-----2-----2-|-2---------2-----|---4-----4-----4--||
E||--0---------0-----|-0---------0-----|-----------------|-2---------2------||

  "There's a seat for you at the rodeo ..."
E|-------4---------|-------2---------|-----------------|-----------------|
B|-------4---------|-------2---------|-----------------|-4---------------|
G|-------4---------|-------3---------|-----1---1--1--1-|-4---------------|
D|-------6---------|-------4---------|-----2---2--2--2-|-4---------------|
A|-----------6-----|-----------4-----|-----2---2--2--2-|-2---------------|
E|-4-----------4---|-2-----------2---|-0---0---0--0--0-|-----------------|

REFRAIN:
   A. "Come back to Texas"
   B. "... Lose your accent ..."
E||------0-------0---|-----0-------0---|-----------------|------------------||
B||------0-------0---|-----0-------0---|-----------------|------------------||
G||o-----x-------x---|-----x-------x---|-4-4-4-4-4-4-4-4-|-----------------o|| Play
D||o-2-2-2-2-2-2-2-2-|-2-2-2-2-2-2-2-2-|-4-4-4-4-4-4-4-4-|-4-4-4-4-4-4-4-4-o|| 2x
A||--2-2-2-2-2-2-2-2-|-2-2-2-2-2-2-2-2-|-2-2-2-2-2-2-2-2-|-4-4-4-4-4-4-4-4--||
E||--0-0-0-0-0-0-0-0-|-0-0-0-0-0-0-0-0-|-----------------|-2-2-2-2-2-2-2-2--||

  "... Seat for you at the rodeo ..."
E|-----------------|-----------------|-----------------|-----------------|
B|-----------------|-----------------|-----------------|-----------------|
G|-----------------|-----------------|-----------------|-4-4-4-4-4-4-4-4-|
D|-6-6-6-6-6-6-6-6-|-4-4-4-4-4-4-4-4-|-2-2-2-2-2-2-2-2-|-4-4-4-4-4-4-4-4-|
A|-6-6-6-6-6-6-6-6-|-4-4-4-4-4-4-4-4-|-2-2-2-2-2-2-2-2-|-2-2-2-2-2-2-2-2-|
E|-4-4-4-4-4-4-4-4-|-2-2-2-2-2-2-2-2-|-0-0-0-0-0-0-0-0-|-----------------|

  "... Mexican food sucks ..."
E||------------------|-----------------|-----0-------0---|-----0-------0----||
B||------------------|-----------------|-----0-------0---|-----0-------0----||
G||o-6-6-6-6-6-6-6-6-|-----------------|-----x-------x---|-----x-------x---o|| Play
D||o-6-6-6-6-6-6-6-6-|-4-4-4-4-4-4-4-4-|-2-2-2-2-2-2-2-2-|-2-2-2-2-2-2-2-2-o|| 2x
A||--4-4-4-4-4-4-4-4-|-4-4-4-4-4-4-4-4-|-2-2-2-2-2-2-2-2-|-2-2-2-2-2-2-2-2--||
E||------------------|-2-2-2-2-2-2-2-2-|-0-0-0-0-0-0-0-0-|-0-0-0-0-0-0-0-0--||

  "... Mexican food sucks ..."
E|-----------------|-----------------|-----------------|-----------------*|
B|-----------------|-----------------|-----------------|-----------------*|
G|-6-----6-6---6---|-----------------|-9-------9--8--6-|-4---------------*|
D|-6-----6-6---6---|-4-----4-4---4---|-9-------9--8--6-|-4---------------*|
A|-4-----4-4---4---|-4-----4-4---4---|-7-------7--6--4-|-2---------------*|
E|-----------------|-2-----2-2---2---|-----------------|-----------------*|
Comments