Bowling For Soup - Make It Up To You Chords & Tabs

 

Make It Up To You Chords & Tabs

Bowling For Soup Chords & Tabs

Version: 1 Type: Tab 0 ratings
1 star 2 stars 3 stars 4 stars 5 stars
comments

Make It Up To You Tab

   
Song: Make It Up To You
Band: Bowling For Soup
Tuning: Standard
Tabber: Rivett *'-'*

This is an excellent song off the 1985 single. I decided to tab it because no one else
has. It is not perfect, but I think it is close enough. An if you don't want to tab it
yourself, this is the only one on the World Wide Web
for you to go by anyway.

_____________________________________________________________________________

Verse 1   x2

e|-----------------------------------------------------------------|
B|-----------------------------------------------------------------|
G|-----------------------------------------------------------------|
D|-6-6-6-6-6-6-6-6-4-4-4-4-4-4-4-4-2-2-2-2-2-2-2-2-6-6-6-6-6-6-6-6-|
A|-6-6-6-6-6-6-6-6-4-4-4-4-4-4-4-4-2-2-2-2-2-2-2-2-6-6-6-6-6-6-6-6-|
E|-4-4-4-4-4-4-4-4-2-2-2-2-2-2-2-2-0-0-0-0-0-0-0-0-4-4-4-4-4-4-4-4-|

PM . . . . . . . . . . . . . . . . . . . . . . . . . . . . . . . .

_____________________________________________________________________________

Pre Chorus

e|-----------------------------|
B|-----------------------------|
G|-2~~~~~~~------------------6-|
D|-2~~~~~~~------------------6-|
A|-0~~~~~~~--4-4-4-4-4-4-4-4-4-|
E|-----------------------------|

_____________________________________________________________________________

Chorus

e|-------------------------------------------------|
B|-------------------------------------------------|
G|-6-6-6666--4-4-4444--2-2-2222------------------6-|
D|-6-6-6666--4-4-4444--2-2-2222------------------6-|
A|-4-4-4444--2-2-2222--0-0-0000--4-4-4-4-4-4-4-4-4-|
E|-------------------------------------------------|
[ Tab from: http://www.guitartabs.cc/tabs/b/bowling_for_soup/make_it_up_to_you_tab.html ]
e|-------------------------------------------------|
B|-------------------------------------------------|
G|-6-6-6666--4-4-4444--2-2-2222--6-6-6-6-6-6-6-6-6-|
D|-6-6-6666--4-4-4444--2-2-2222--6-6-6-6-6-6-6-6-6-|
A|-4-4-4444--2-2-2222--0-0-0000--4-4-4-4-4-4-4-4-4-|
E|-------------------------------------------------|

_____________________________________________________________________________

Bridge

e|---------------------------------------|
B|---------------------------------------|
G|-6-666666-4-444444-2-222222-6-6666666--|
D|-6-666666-4-444444-2-222222-6-6666666--|
A|-4-444444-2-222222-0-000000-4-4444444--|
E|---------------------------------------|

_____________________________________________________________________________

Verse 3

e|--------------------------------------------------|
B|--------------------------------------------------|
G|--6---4---6---4---6---4---6---4---6---4---6---4---|
D|--6---4---6---4---6---4---6---4---6---4---6---4---|
A|--4---2---4---2---4---2---4---2---4---2---4---2---|
E|--------------------------------------------------|

_____________________________________________________________________________

Pre Chorus 2

e|---------------------|
B|---------------------|
G|--6-6-6-6-6-6-6-6-6--|
D|--6-6-6-6-6-6-6-6-6--|
A|--4-4-4-4-4-4-4-4-4--|
E|---------------------|

PM  . . . . . . . . _

_____________________________________________________________________________


Well, there we go, brilliant song. Hope you like the tab

Cheers!

_____________________________________________________________________________

KEY

PM .  =   Palm Mute Notes With .
PM _  =   Do Not Palm Mute Notes With _
   ~  =   Ring Out Previous Note. The More ~ The Longer You Ring Out
_____________________________________________________________________________









Comments