Bowling For Soup - Last Rock Show Chords & Tabs

 

Last Rock Show Chords & Tabs

Bowling For Soup Chords & Tabs

Version: 1 Type: Bass Tab 0 ratings
1 star 2 stars 3 stars 4 stars 5 stars
comments

Last Rock Show Bass Tab

   
This song is easy just pick it up as you go along have fun :)

Intro:       While solo plays 
G:--------|--------------------------------------|
d:--------|--------------------------------------|
a:3-----5-|-33333333333333333333333333333333/12/3|
e:--3-1---|--------------------------------------|

Verse:
g:--------------------------------------------------------------
d:--------------------------------------------------------------
a:33333333333333333333333333333333------------------------------
e:--------------------------------111111111111111111111111111111

g:--------------------------------
d:--------------------------------
a:33333333333333333333333333333333
e:--------------------------------
[ Tab from: http://www.guitartabs.cc/tabs/b/bowling_for_soup/last_rock_show_btab.html ]
G:---------------------------------------------------------------
D:---------------------------------------------------------------
A:3333333333333333333333333333333--------------------------------
E:-------------------------------11111111111111111111111111111111

G:------------------------------
D:------------------------------
a:333333333333333333333333333333
E:------------------------------
...and this is sure to take a while.......
G:---------------------------------------------
D:---------------------------------------------
A:------3333333333333333-------3333333333333333
E:33--11-----------------33--11----------------

..... And so we all jump around .....
G:-------------------------
D:-------------------------
A:------------33---------3~
E:33--11--00------33--11---
Comments