Bowling For Soup - Girl All The Bad Guys Want Chords & Tabs

 

Girl All The Bad Guys Want Chords & Tabs

Bowling For Soup Chords & Tabs

Version: 10 Type: Tab 0 ratings
1 star 2 stars 3 stars 4 stars 5 stars
comments

Girl All The Bad Guys Want Tab

   
I'VE LOOKED AT THIS TAB SO MANY TIMES AND NONE OF THEM ARE THIS GOOD. ENJOI


GUITAR 1
e|--------------------------------|
G|--------------------------------|
B|--------------------------------|
D|--0-------0-------0-------------|
A|----4-0-----4-0-----4-0-2-0---0-|
E|0-------4-------5-----------5---|(3 TIMES)

GUITAR 2
e|----------------------|
G|----------------------|
B|----------------------|
D|0000004444455555557777|
A|0000004444455555557777|
E|0000004444455555557777|(2 TIMES)

VERSE(GUITAR 1 AND 2)
e|-----------------------------------|
G|-----------------------------------|
B|-----------------------------------|
D|0000000055557777-00000000555577-7-9|
A|0000000055557777-00000000555577-7-9|
E|0000000055557777-00000000555577-7-9|(2 TIMES)
PM...............................

PRECHORUS(GUITAR 1 AND 2)
e|------------------------|
B|------------------------|
G|------------------------|
D|9999777755550000222255-5|
A|9999777755550000222255-5|
E|9999777755550000222255-5|

CHORUS(GUITAR 1 AND 2)
e|-------------------------------------------------------------|
B|-------------------------------------------------------------|
G|-------------------------------------------------------------|
D|00-22-44-55-2222222244444444555555554444444455555555-77777777|
A|00-22-44-55-2222222244444444555555554444444455555555-77777777|
E|00-22-44-55-2222222244444444555555554444444455555555-77777777|
              PM......................................
GUITAR 1
e|--------------------------------|
G|--------------------------------|
B|--------------------------------|
D|--0-------0-------0-------------|
A|----4-0-----4-0-----4-0-2-0---0-|
E|0-------4-------5-----------5---|(2 TIMES)

VERSE(GUITAR 1 AND 2)
e|-----------------------------------|
G|-----------------------------------|
B|-----------------------------------|
D|0000000055557777-00000000555577-7-9|
A|0000000055557777-00000000555577-7-9|
E|0000000055557777-00000000555577-7-9|(2 TIMES)
PM...............................
[ Tab from: http://www.guitartabs.cc/tabs/b/bowling_for_soup/girl_all_the_bad_guys_want_tab_ver_10.html ]
PRECHORUS(GUITAR 1 AND 2)
e|------------------------|
B|------------------------|
G|------------------------|
D|9999777755550000222255-5|
A|9999777755550000222255-5|
E|9999777755550000222255-5|

CHORUS(GUITAR 1 AND 2)
e|--------------------------------------------|
B|--------------------------------------------|
G|--------------------------------------------|
D|00-22-44-55-00000000222222224444444455555555|
A|00-22-44-55-00000000222222224444444455555555|
E|00-22-44-55-00000000222222224444444455555555|
              PM...............................

CHORUS INTERLUDE (GUITAR 2)
e|-------------------------------------------------|
B|-------------------------------------------------|
G|-------------------------------------------------|
D|2222222244444444555555554444444455555555-77777777|
A|2222222244444444555555554444444455555555-77777777|
E|2222222244444444555555554444444455555555-77777777|
PM........................................

GUITAR 1
e|--------------------------------|
G|--------------------------------|
B|--------------------------------|
D|--0-------0-------0-------------|
A|----4-0-----4-0-----4-0-2-0---0-|
E|0-------4-------5-----------5---|(2 TIMES)

e|-------------------------------|
B|-------------------------------|
G|-------------------------------|
D|9-9-9-9-7-7-7-7-5-5-5-5-5-5-5-5|
A|9-9-9-9-7-7-7-7-5-5-5-5-5-5-5-5|
E|9-9-9-9-7-7-7-7-5-5-5-5-5-5-5-5|(2 TIMES)

BRIDGE(GUITAR 2)
e|---------|
B|---------|
G|---------|
D|9-7-5-2-0|
A|---------|
E|---------|

CHORUS INTERLUDE (GUITAR 2)
e|-------------------------------------------------|
B|-------------------------------------------------|
G|-------------------------------------------------|
D|2222222244444444555555554444444455555555-77777777|
A|2222222244444444555555554444444455555555-77777777|
E|2222222244444444555555554444444455555555-77777777|
PM........................................

GUITAR 1
e|--------------------------------|
G|--------------------------------|
B|--------------------------------|
D|--0-------0-------0-------------|
A|----4-0-----4-0-----4-0-2-0---0-|
E|0-------4-------5-----------5---|(6 TIMES)
Comments