Bowling For Soup - Girl All The Bad Guys Want Chords & Tabs

 

Girl All The Bad Guys Want Chords & Tabs

Bowling For Soup Chords & Tabs

Version: 1 Type: Tab 1 rating
1 star 2 stars 3 stars 4 stars 5 stars
comments

Girl All The Bad Guys Want Tab

					Bowling For Soup

					“Girl All The Bad Guys Want”
										Russ Heim


Droppped D tuning


Intro x2 (x3 for guitar one)

Guitar 1

e--------------------------------------------------------------------------------------------------------------------------------
B-------------------------------------------------------------------------------------------------------------------------------
G-------------------------------------------------------------------------------------------------------------------------------
D--------2----1----------------2-----1---------------------2----1------------------------------------------------------------
A------------------2-------------------------2------0------------------2----4----2---4---2----------------------------------
E---0---------------------4----------------------------------------------------------------------------------------------------



Guitar 2 (Before verse 1)
e--------------------------------------------------------------------------------------------------------------------------------
B-------------------------------------------------------------------------------------------------------------------------------
G-------------------------------------------------------------------------------------------------------------------------------
D---2---2---2---2----6---6---6---6-----7---7---7---7----9---9---9---9--------------------------------------------------
A---2---2---2---2----6---6---6---6-----7---7---7---7----9---9---9---9--------------------------------------------------
E --0---0---0---0----4---4---4---4-----5---5---5---5----7---7---7---7---------------------------------------------------


Verse 1   4x  Palm Muted

e--------------------------------------------------------------------------------------------------------------------------------
B-------------------------------------------------------------------------------------------------------------------------------
G---------------------------------------2---2---2---2------4---4---4---4------------------------------------------------
D---2---2---2---2---2---2---2---2-------2---2---2---2------4---4---4---4------------------------------------------------
A---2---2---2---2---2---2---2---2-------0---0---0---0------2---2---2---2------------------------------------------------
E---0---0---0---0---0---0---0---0-------------------------------------------------------------------------------------------

8 o’clock, Monday night, and I’m wating….

Verse 2

e--------------------------------------------------------------------------------------------------------------------------------
B-------------------------------------------------------------------------------------------------------------------------------
G----6---6---6---6------4---4---4---4----2---2---2---2------------------------6---6---6---6-----4---4---4---4-------
D----6---6---6---6------4---4---4---4----2---2---2---2-----4---4---6---6------6---6---6---6-----4---4---4---4-------
A----4---4---4---4------2---2---2---2----0---0---0---0-----4---4---6---6------4---4---4---4-----2---2---2---2-------
E----------------------------------------------------------2---2---4---4------------------------------------------------

And when she walks, all the windows….




Pre Chorus----- -----------------From here> on is palm muted 
				   x8   x8      x8    x8   x8   x8  	
e--------------------------------------------------------------------------------------------------------------------------------
B-------------------------------------------------------------------------------------------------------------------------------
G-------------------------------------------------------------------------------------------------------------------------------
D---2---2------4---4------6---6-----7---7--------4-----6----7----6------7---9--------------------------------------------
A---2---2------4---4------6---6-----7---7--------4-----6----7----6------7---9--------------------------------------------
E---0---0------2---2------4---4-----5---5--------2-----4----5----4------5---7--------------------------------------------

She’s Watching wrestling…..

Chorus x2

Guitar 1

e--------------------------------------------------------------------------------------------------------------------------------
B-------------------------------------------------------------------------------------------------------------------------------
G-------------------------------------------------------------------------------------------------------------------------------
D--------2----1----------------2-----1---------------------2----1------------------------------------------------------------
A------------------2-------------------------2------0------------------2----4----2---4---2----------------------------------
E---0---------------------4----------------------------------------------------------------------------------------------------

..cause she’s the girl all the bad guys want….

Guitar 2 

e--------------------------------------------------------------------------------------------------------------------------------
B-------------------------------------------------------------------------------------------------------------------------------
G-------------------------------------------------------------------------------------------------------------------------------
D---2---2---2---2----6---6---6---6----7---7---7---7-----9---9---9---9--------------------------------------------------
A---2---2---2---2----6---6---6---6----7---7---7---7-----9---9---9---9--------------------------------------------------
E --0---0---0---0----4---4---4---4----5---5---5---5-----7---7---7---7---------------------------------------------------


Verse 3   4x  Palm Muted

e--------------------------------------------------------------------------------------------------------------------------------
B-------------------------------------------------------------------------------------------------------------------------------
G---------------------------------------2---2---2---2------4---4---4---4------------------------------------------------
D---2---2---2---2---2---2---2---2-------2---2---2---2------4---4---4---4------------------------------------------------
A---2---2---2---2---2---2---2---2-------0---0---0---0------2---2---2---2------------------------------------------------
E---0---0---0---0---0---0---0---0-------------------------------------------------------------------------------------------

She likes the godsmack….

Verse 4

e--------------------------------------------------------------------------------------------------------------------------------
B-------------------------------------------------------------------------------------------------------------------------------
G----6---6---6---6------4---4---4---4------2---2---2---2----------------------6---6---6---6-----4---4---4---4-------
D----6---6---6---6------4---4---4---4------2---2---2---2---4---4---6---6------6---6---6---6-----4---4---4---4-------
A----4---4---4---4------2---2---2---2------0---0---0---0---4---4---6---6------4---4---4---4-----2---2---2---2-------
E----------------------------------------------------------2---2---4---4------------------------------------------------

And when she walks…


[ Tab from: http://www.guitartabs.cc/tabs/b/bowling_for_soup/girl_all_the_bad_guys_want_tab.html ]
Pre Chorus ----- -----------------From here> on is palm muted 
                     			        x8    x8    x8   x8    x8  x8  x8  x8  x8  x8
e--------------------------------------------------------------------------------------------------------------------------------
B-------------------------------------------------------------------------------------------------------------------------------
G-------------------------------------------------------------------------------------------------------------------------------
D---2---2------4---4------6---6-----7---7--------2-----4----6----7------4---6---7---6---7---9--------------------------
A---2---2------4---4------6---6-----7---7--------2-----4----6----7------4---6---7---6---7---7--------------------------
E---0---0------2---2------4---4-----5---5--------0-----2----4----5------2---4---5---4---5---7--------------------------

She’s watching wrestling


Guitar 1  x4

e--------------------------------------------------------------------------------------------------------------------------------
B-------------------------------------------------------------------------------------------------------------------------------
G-------------------------------------------------------------------------------------------------------------------------------
D--------2----1----------------2-----1---------------------2----1------------------------------------------------------------
A------------------2-------------------------2------0------------------2----4----2---4---2----------------------------------
E---0---------------------4----------------------------------------------------------------------------------------------------

…girl all the bad guys want…

Guitar 2    x4

e--------------------------------------------------------------------------------------------------------------------------------
B-------------------------------------------------------------------------------------------------------------------------------
G-------------------------------------------------------------------------------------------------------------------------------
D---2---2---2---2----6---6---6---6----7---7---7---7----9---9---9---9---------------------------------------------------
A---2---2---2---2----6---6---6---6----7---7---7---7----9---9---9---9---------------------------------------------------
E---0---0---0---0----4---4---4---4----5---5---5---5----7---7---7---7----------------------------------------------------


  Beginning of bridge x2								
			            x8                  
e--------------------------------------------------------------------------------------------------------------------------------
B-------------------------------------------------------------------------------------------------------------------------------
G----6---6---6---6-----4---4---4---4----2----6---6---6---6----4---4---4---4---------------------------------------------
D----6---6---6---6-----4---4---4---4----2----6---6---6---6----4---4---4---4---------------------------------------------
A----4---4---4---4-----2---2---2---2----0----4---4---4---4----2---2---2---2---------------------------------------------
E-------------------------------------------------------------------------------------------------------------------------------

There she goes again…

Guitar 1 

e--------------------------------------------------------------------------------------------------------------------------------
B-------------------------------------------------------------------------------------------------------------------------------
G---2---2---2---2---2---2---2---2-------4---4---4---4---4---4---4---4---------------------------------------------------
D---2---2---2---2---2---2---2---2-------4---4---4---4---4---4---4---4---------------------------------------------------
A---0---0---0---0---0---0---0---0-------2---2---2---2---2---2---2---2---------------------------------------------------
E-------------------------------------------------------------------------------------------------------------------------------


Guitar 2 comes in with this:


e--------------------------------------------------------------------------------------------------------------------------------
B-------------------------------------------------------------------------------------------------------------------------------
G----------------11---9---8---6---4------------------------------------------------------------------------------------------
D-------------------------------------------------------------------------------------------------------------------------------
A-------------------------------------------------------------------------------------------------------------------------------
E-------------------------------------------------------------------------------------------------------------------------------

    …All I wanted was to see her naked…

Pause for : “I’m watching wrestling…”


		        x8    x8   x8   x8     x8  x8  	
e--------------------------------------------------------------------------------------------------------------------------------
B-------------------------------------------------------------------------------------------------------------------------------
G-------------------------------------------------------------------------------------------------------------------------------
D------------------------4-----6----7---6------7---9-----------------------------------------------------------------------
A------------------------4-----6----7---6------7---9-----------------------------------------------------------------------
E---0---2---4---5--------2---- 4----5---4------5---7------------------------------------------------------------------------

“I can’t grow a mustache…”

Outro x6

Guitar 1

e--------------------------------------------------------------------------------------------------------------------------------
B-------------------------------------------------------------------------------------------------------------------------------
G-------------------------------------------------------------------------------------------------------------------------------
D--------2----1----------------2-----1---------------------2----1------------------------------------------------------------
A------------------2-------------------------2------0------------------2----4----2---4---2----------------------------------
E---0---------------------4----------------------------------------------------------------------------------------------------

…she’s the girl all the bad guys want

Guitar 2 							                End On:			

e-----------------------------------------------------------------------------------I------------------------------------------
B-----------------------------------------------------------------------------------I------------------------------------------
G-----------------------------------------------------------------------------------I------------------------------------------
D---2---2---2---2-----6---6---6---6----7---7---7---7-----9---9---9---9-----------2--I--2---2---------------------------
A---2---2---2---2-----6---6---6---6----7---7---7---7-----9---9---9---9-----------2--I--2---2---------------------------
E --0---0---0---0-----4---4---4---4----5---5---5---5-----7---7---7---7-----------0--I--0---0---------------------------

…she’s the girl all the bad guys want



Sounds great when I play it straight off their album "Drunk Enough To Dance" but if you have any questions or comments email
 me at Soxfan2586@aol.com
Comments