Bowling For Soup - Girl All The Bad Guys Want Chords & Tabs

 

Girl All The Bad Guys Want Chords & Tabs

Bowling For Soup Chords & Tabs

Version: 3 Type: Bass Tab 0 ratings
1 star 2 stars 3 stars 4 stars 5 stars
comments

Girl All The Bad Guys Want Bass Tab

   
                      GIRL ALL THE BAD GUYS WANT (Bassline)
                         As recorded by Bowling For SOup

Words and Music by Bowling For Soup
Arranged by Stephen Brown

Gtr I (D A D G) - 'Untitled'

 Intro
  Q=131
 4/4
  Gtr I
  Wx2          E E E E E E E E   E E E E E E E E
|------------|-----------------|-----------------|
|------------|-----------------|-----------------|
|------------|-----------------|-----------------|
|------------|-0-0-0-0-4-4-4-4-|-5-5-5-5-7-7-7-7-|


   Verse
                      1.,3.,4.            2.
    E E E E E E E E   E E E E E E E E     E E E E E E E E
||------------------|------------------||------------------||
||o-----------------|-----------------o||-----------------o||
||o-----------------|-----------------o||-----------------o||
||--0-0-0-0-0-0-0-0-|-5-5-5-5-7-7-7-7--||-5-5-5-5-7-7-7-9--||


 Bridge Riff 1
  Q  E E E E E E   E E E E E E E E   E E Q  E E Q
|----------------|-----------------|--------------|
|----------------|-----------------|--------------|
|----------------|-----------------|--------------|
|-9--9-9-9-9-9-7-|-7-7-7-7-7-7-7-7-|-5-5-5--5-5-5-|


  Q  Q  E E Q    Q  E E E E Q    Q  E E E E E E
|--------------|---------------|----------------||
|--------------|---------------|----------------||
|--------------|---------------|----------------||
|-0--0--0-0-0--|-2--2-2-2-2-4--|-5--5-5-5-5-5-5-||


  Q  q  H      Q  q  H      Q  q  H      Q  q  Q   Q
|------------|------------|------------|----------------|
|------------|------------|------------|----------------|
|------------|------------|------------|----------------|
|-0--0-------|-2--2-------|-4--4-------|-5--5-----14\---|


  E E E E E E E E   E E E E E E E E   E E E E E E E E
|-----------------|-----------------|-----------------|
|-----------------|-----------------|-----------------|
|-----------------|-----------------|-----------------|
|-2-2-2-2-2-2-2-2-|-4-4-4-4-4-4-4-4-|-5-5-5-5-5-5-5-5-|


  E E E E E E E E   E E E E E E E E   E E E E E E  Q
|-----------------|-----------------|-----------------||
|-----------------|-----------------|-----------------||
|-----------------|-----------------|-----------------||
|-4-4-4-4-4-4-4-4-|-5-5-5-5-5-5-5-5-|-7-7-7-7-7-7-14\-||


   Chorus
    E E E E E E E E   E E E E E E E E
||------------------|------------------||
||o-----------------|-----------------o||
||o-----------------|-----------------o||
||--0-0-0-0-4-4-4-4-|-5-5-5-5-7-7-7-7--||

[ Tab from: http://www.guitartabs.cc/tabs/b/bowling_for_soup/girl_all_the_bad_guys_want_btab_ver_3.html ]
   Verse
                      1.,3.,4.            2.
    E E E E E E E E   E E E E E E E E     E E E E E E E E
||------------------|------------------||------------------||
||o-----------------|-----------------o||-----------------o||
||o-----------------|-----------------o||-----------------o||
||--0-0-0-0-0-0-0-0-|-5-5-5-5-7-7-7-7--||-5-5-5-5-7-7-7-9--||


 Bridge Riff 1
  Q  E E E E E E   E E E E E E E E   E E Q  E E Q
|----------------|-----------------|--------------|
|----------------|-----------------|--------------|
|----------------|-----------------|--------------|
|-9--9-9-9-9-9-7-|-7-7-7-7-7-7-7-7-|-5-5-5--5-5-5-|


  Q  Q  E E Q    Q  E E E E Q    Q  E E E E E E
|--------------|---------------|----------------||
|--------------|---------------|----------------||
|--------------|---------------|----------------||
|-0--0--0-0-0--|-2--2-2-2-2-4--|-5--5-5-5-5-5-5-||


 Bridge Riff 2
  Q  q  H      Q  q  H      Q  q  H      Q  q  Q   Q
|------------|------------|------------|--------------|
|------------|------------|------------|--------------|
|------------|------------|------------|--------------|
|-0--0-------|-2--2-------|-4--4-------|-5--5-----14\-|


  E E E E E E E E   E E E E E E E E   E E E E E E E E
|-----------------|-----------------|-----------------|
|-----------------|-----------------|-----------------|
|-----------------|-----------------|-----------------|
|-2-2-2-2-2-2-2-2-|-4-4-4-4-4-4-4-4-|-5-5-5-5-5-5-5-5-|


  E E E E E E E E   E E E E E E E E   E E E E E E  Q
|-----------------|-----------------|-----------------||
|-----------------|-----------------|-----------------||
|-----------------|-----------------|-----------------||
|-4-4-4-4-4-4-4-4-|-5-5-5-5-5-5-5-5-|-7-7-7-7-7-7-14\-||


   Chorus
    E E E E E E E E   E E E E E E E E
||------------------|------------------||
||o-----------------|-----------------o||
||o-----------------|-----------------o||
||--0-0-0-0-4-4-4-4-|-5-5-5-5-7-7-7-7--||


   Middle Section
                                        1.
          |3-| |3-|
    q  q  q  E q  E   Q  Q  Q  E Q  E   Q  Q  Q  E Q  E   Q  Q  E Q  Q E
||------------------|-----------------|-----------------|-----------------||
||o-----------------|-----------------|-----------------|----------------o||
||o-----------------|-----------------|-----------------|---------5--4---o||
||--9--9--9--7-9--7-|-7--7--7--x-7--0-|-5--5--5--5-5--5-|-5--5--x------9--||


  2.
                                  <
  H    Q.   Q    Q  Q  Q  Q    Q  E E E E E E   E E  E  S S E E E E
|--------------|-------------|----------------|----------------------||
|--------------|-------------|----------------|----------------------||
|--------------|-7--5--4--2--|-0--0-0-0-0-0-0-|-0-0------------------||
|-5----5----x--|-------------|----------------|-----14\-x-x-5-5-5-5--||


 Breakdown
  Wx8
|--------|
|--------|
|--------|
|--------|


   Outro
    E E E E E E E E   E E E E E E E E  6x E E E E H
||------------------|------------------||--------------||
||o-----------------|-----------------o||--------------||
||o-----------------|-----------------o||--------------||
||--0-0-0-0-4-4-4-4-|-5-5-5-5-7-7-7-7--||-0-0-0--------||
Comments