Bowling For Soup - Emily Chords & Tabs

 

Emily Chords & Tabs

Bowling For Soup Chords & Tabs

Version: 4 Type: Tab 0 ratings
1 star 2 stars 3 stars 4 stars 5 stars
comments

Emily Tab

   
-------------------------------------------------------------------------------
			     EMILY - BOWLING FOR SOUP
-------------------------------------------------------------------------------

Tabbed by: Sic hed
Email: chrisb_182@hotmail.com

 h: hammer-on
 p: pull-off
 x: Palm Mute

This song doesnt realy have and intro, so ill jst go straight into the Verse

Verse  
e|----------------------------------------------------------------------|
B|----------------------------------------------------------------------|
G|--------------------------------------6-6-6-6-6-6-6-6-6-6-6-6-6-6-6-6-|
D|--7--7-7-7-7-7-7-7-7-7-7-7-7-7-7-7-7--6-6-6-6-6-6-6-6-6-6-6-6-6-6-6-6-|
A|--7--7-7-7-7-7-7-7-7-7-7-7-7-7-7-7-7--4-4-4-4-4-4-4-4-4-4-4-4-4-4-4-4-|
E|--5--5-5-5-5-5-5-5-5-5-5-5-5-5-5-5-5----------------------------------|
       x x x x x x x x x x x x x x x x  x x x x x x x x x x x x x x x x  

e|----------------------------------------------------------------------------|
B|----------------------------------------------------------------------------|
G|-----------------------------------7-7-7-7-7-7-7-7-7-7-7-7-7-7-7-7----------|
D|--4-4-4-4-4-4-4-4-4-4-4-4-4-4-4-4--7-7-7-7-7-7-7-7-7-7-7-7-7-7-7-7----------|
A|--4-4-4-4-4-4-4-4-4-4-4-4-4-4-4-4--5-5-5-5-5-5-5-5-5-5-5-5-5-5-5-5--5p4h5p4-|
E|--2-2-2-2-2-2-2-2-2-2-2-2-2-2-2-2-------------------------------------------|
    x x x x x x x x x x x x x x x x  x x x x x x x x x x x x x x x x

e|-------------------------------------------------------------------|
B|-------------------------------------------------------------------|
G|-----------------------------------6-6-6-6-6-6-6-6-6-6-6-6-6-6-6-6-|
D|--7-7-7-7-7-7-7-7-7-7-7-7-7-7-7-7--6-6-6-6-6-6-6-6-6-6-6-6-6-6-6-6-|
A|--7-7-7-7-7-7-7-7-7-7-7-7-7-7-7-7--4-4-4-4-4-4-4-4-4-4-4-4-4-4-4-4-|
E|--5-5-5-5-5-5-5-5-5-5-5-5-5-5-5-5----------------------------------|

e|---------------------------------------------------------------------------|
B|---------------------------------------------------------------------------|
G|-----------------------------------7-7-7-7-7-7-7-7-7-7-7-7-7-7-7-7---------|
D|--4-4-4-4-4-4-4-4-4-4-4-4-4-4-4-4--7-7-7-7-7-7-7-7-7-7-7-7-7-7-7-7---------|
A|--4-4-4-4-4-4-4-4-4-4-4-4-4-4-4-4--5-5-5-5-5-5-5-5-5-5-5-5-5-5-5-5-5p4h5p4-|
E|--2-2-2-2-2-2-2-2-2-2-2-2-2-2-2-2------------------------------------------|

Chorus 
e|-----------------------------------------------------|
B|-----------------------------------------------------|
G|---------------9-9-9-9-9-9---------------7-7-7-7-7-7-| x3
D|--7-7-7-7-7-7--9-9-9-9-9-9--9-9-9-9-9-9--7-7-7-7-7-7-|
A|--7-7-7-7-7-7--7-7-7-7-7-7--9-9-9-9-9-9--5-5-5-5-5-5-|
E|--5-5-5-5-5-5---------------7-7-7-7-7-7--------------|
[ Tab from: http://www.guitartabs.cc/tabs/b/bowling_for_soup/emily_tab_ver_4.html ]
e|------------------------------------------------------------|
B|------------------------------------------------------------|
G|------------------------------------------------------------|
D|--4-4-4-4-4-4-4-4--9-9-9-9-9-9-9-9--7-7-7-7-7-7-7-7-7-7-7-7-| 
A|--4-4-4-4-4-4-4-4--9-9-9-9-9-9-9-9--7-7-7-7-7-7-7-7-7-7-7-7-|
E|--2-2-2-2-2-2-2-2--7-7-7-7-7-7-7-7--5-5-5-5-5-5-5-5-5-5-5-5-|
    x x x x x x x x  x x x x x x x x  x x x x   x x   x x 
       
Bridge (Guitar 1)
e|------------------------------------|
B|------------------------------------|
G|---------------9----------------7---|
D|------7------9---9-----9------7---7-| x3
A|----7---7--7---------9---9--5-------|
E|--5----------------7----------------|

(Guitar 2)
e|----------------------------------------|
B|----------------------------------------|
G|------------9-9-9-9------------7-7-7-7--| 
D|--7-7-7-7---9-9-9-9---9-9-9-9--7-7-7-7--| x3
A|--7-7-7-7---7-7-7-7 --9-9-9-9--5-5-5-5--|
E|--5-5-5-5-------------7-7-7-7-----------|

(Guitar 1)
e|-----------------------------------------------------|
B|-----------------------------------------------------|
G|-----------------------------------------------------|
D|--4-4--9-9-9-9--7-7-7-7-7-7-7-7-7-7-7-7-7-7----------|
A|--4-4--9-9-9-9--7-7-7-7-7-7-7-7-7-7-7-7-7-7--5p4h5p4-|
E|--2-2--7-7-7-7--5-5-5-5-5-5-5-5-5-5-5-5-5-5----------|
                    x x x x x x   x x x x x x

Solo
(Guitar 1) x4
e|----------------------------------------------------------------------|
B|----------------------------------------------------------------------|
G|--------------------------------------6-6-6-6-6-6-6-6-6-6-6-6-6-6-6-6-|
D|--7--7-7-7-7-7-7-7-7-7-7-7-7-7-7-7-7--6-6-6-6-6-6-6-6-6-6-6-6-6-6-6-6-|
A|--7--7-7-7-7-7-7-7-7-7-7-7-7-7-7-7-7--4-4-4-4-4-4-4-4-4-4-4-4-4-4-4-4-|
E|--5--5-5-5-5-5-5-5-5-5-5-5-5-5-5-5-5----------------------------------|
       x x x x x x x x x x x x x x x x  x x x x x x x x x x x x x x x x  

e|----------------------------------------------------------------------------|
B|----------------------------------------------------------------------------|
G|-----------------------------------7-7-7-7-7-7-7-7-7-7-7-7-7-7-7-7----------|
D|--4-4-4-4-4-4-4-4-4-4-4-4-4-4-4-4--7-7-7-7-7-7-7-7-7-7-7-7-7-7-7-7----------|
A|--4-4-4-4-4-4-4-4-4-4-4-4-4-4-4-4--5-5-5-5-5-5-5-5-5-5-5-5-5-5-5-5--5p4h5p4-|
E|--2-2-2-2-2-2-2-2-2-2-2-2-2-2-2-2-------------------------------------------|
    x x x x x x x x x x x x x x x x  x x x x x x x x x x x x x x x x

(Guitar 2) x4
e|-------------------------------------|
B|-------------------------------------|
G|-----------6-4-----------------------|
D|---7-6---------4----4--------p-h-p---|
A|-------4--------------7-5---5-4-5-4--|
E|-------------------------------------|

Verse
Chorus
Bridge
Verse
Chorus
Bridge
Solo
Bridge
Chorus
Chorus

VERSE 1
It wasn't supposed to be like this
Another dose of unhappiness
I gave it all and managed to get shot down yet again
So I got drunk
Had sex with all your friends
You told me to never call your house again

CHORUS
Emily, you saved the day
Emily, when you threw me away

BRIDGE
She was always such a pretty girl
Nobody like her in the world
A little piece of heavenly
That no one else could stand
I see her in my dreams at night
I see you when I close my eyes
I just can't seem to shake you, Emily

VERSE 2
You got your money and I got cast
Outside thrown out on my ass
In the city with no one else, no where else to go
So I hooked up with this model from Singapore
Emily, I sure am glad you didn't want me anymore

CHORUS
BRIDGE
CHORUS
CHORUS

Emily, you saved the day
Emily, you saved the day 
Emily, you saved my ass

===============================================================================
Comments