Bowling For Soup - Emily Chords & Tabs

 

Emily Chords & Tabs

Bowling For Soup Chords & Tabs

Version: 3 Type: Tab 0 ratings
1 star 2 stars 3 stars 4 stars 5 stars
comments

Emily Tab

   
Song: Emily
Artist: Bowling for Suop
Tabbed by: Deadmeat (the_xxxxx@hotmail.com)

Standard tuning (E A D G B E)


pm=palm muted
* = play 8 times
\ = slide down
> = accent on this note
x = muted
~ = vibration

-------
|Intro|
-------
  Guitar 2
e|----------------|-------------------------------||
B|----------------|-------------------------------||
G|-----9-9-----7--|-----9-9-----7-7---------------||
D|-7-7-9-9-9-9-7--|-7-7-9-9-9-9-7-7-----------7\--||
A|-7-7-7-7-9-9-5--|-7-7-7-7-9-9-5-5-(5-54545)-7\--||
E|-5-5-----7-7----|-5-5-----7-7------Guitar1-5\--||


-------
|Verse|
-------
  Guitar 2  ...this...           
e|------------------------------|--------------||
B|------------------------------|--------------||
G|-----------------6---7--------|-----6-----7--||
D|-------------6---6---7--766-2-|--7--6--4--7--||
A|-------------6---*---*--766-2-|--7--4--4--5--||
E|-------------*----------544-0-|--5--*--2--*--||
            Listen to cd for the   *     *
            actual rhytem         pm.......
--------    of these chords
|Chorus|
--------
  Guitar 2     3x                             3x
e|-------------|-------|--------------------|----------------------||
B|-------------|-------|--------------------|----------------------||
G|----9-----7-#|-------|#-----9999----7777-#|-----9999--7-7-7------||
D|-7--9--9--7-#|-4-7-9-|#-7777999999997777-#|-777799999-7-7-7------||
A|-7--7--9--5--|-4-7-9-|--7777777799995555--|-777777779-5-5-5(5454)||
E|-5--*--7--*--|-2-5-7-|--5555----7777------|-5555----7-*-*-*------||
   *     *       * * *                                * pm....       
              pm......          
[ Tab from: http://www.guitartabs.cc/tabs/b/bowling_for_soup/emily_tab_ver_3.html ]
------
|Solo|
------
  Guitar 1
e|-----------------------------------------------------------------||
B|-----------------------------------------------------------------||
G|---------------767697-76----997766779977667799776677-676---------||
D|-767697-767697----------97------------------------------7-766----||
A|-------------------------------------------------------------7\--||
E|-A5------------Db5----------Gb5-------------D5-------------------||
  Guitar 2
e|--A5---Db5--Gb5--D5---------||
B|----------------------------||
G|-------6---------7----------||
D|--7----6----4----7---766-2--||
A|--7----4----4----5---766-2--||
E|--5----*----2----*---544-0--||
    *         *
-------
|Verse|
-------
  Guitar 2  ...cast...           
e|------------------------------|--------------||
B|------------------------------|--------------||
G|-----------------6---7--------|-----6-----7--||
D|-------------6---6---7--766-2-|--7--6--4--7--||
A|-------------6---*---*--766-2-|--7--4--4--5--||
E|-------------*----------544-0-|--5--*--2--*--||
                                   *     *
--------    
|Chorus|
--------
  Guitar 2     3x                          3x
e|-------------|-------|--------------------|----------------------||
B|-------------|-------|--------------------|----------------------||
G|----9-----7-#|-------|#-----9999----7777-#|-----9999--77777------||
D|-7--9--9--7-#|-4-7-9-|#-7777999999997777-#|-777799999-77777------||
A|-7--7--9--5--|-4-7-9-|--7777777799995555--|-777777779-55575(5454)||
E|-5--*--7--*--|-2-5-7-|--5555----7777------|-5555----7-*****------||
   *     *       * * *                                * pm....       
              pm......          
--------
|Bridge|
--------
  Guitar 2      3x ...she was...
e|---------------|----------------|-----||
B|---------------|----------------|-----||
G|-----6-----7--#|----------------|-7---||
D|--7--6--4--7--#|-7--------------|-7---||
A|--7--4--4--5---|-7--------------|-5---||
E|--5-----2------|-5--------------|-*---||

                                2x              ...she was...3x
e|-------------------------------|-------------||------------||
B|-------------------------------|-------------||------------||
G|------------------------------#|-------------||#----------#||
D|-xxxx7\-xxxx6\-xxxx4\---------#|-------------||#----------#||
A|----------------------xxxx5454-|----4~----5~-||--45-57-454-||
E|-------------------------------|-5~----2~----||-5-----7----||

----- 
|End|
-----
  Guitar 2   Repeat till end
e|-------------||-----||
B|-------------||-----||
G|----9-----7-#||-----||
D|-7--9--9--7-#||--7--||
A|-7--7--9--5--||--7--||
E|-5--*--7--*--||--5--||
   *     *

Well, that's it. I don't think it's 100%, but I got some parts that aren't in
version 1 (no offense to anyone).


Lyrics:

It wasn't supposed to be like this
Another dose of unhappiness
I gave it all and managed to get shot down yet again
So I got drunk
Had sex with all your friends
You told me to never call your house again

Emily, you saved the day
Emily, when you threw me away
She was always such a pretty girl
Nobody like her in the world
A little piece of heavenly
That no one else could stand
I see her in my dreams at night
I see you when I close my eyes
I just can't seem to shake you, Emily

You got your money and I got cast
Outside thrown out on my ass
In the city with no one else, no where else to go
So I hooked up with this model from Singapore
Emily, I sure am glad you didn't want me anymore

She was always such a pretty girl
Nobody like her in the world
A little piece of heavenly
That no one else could stand
I see her in my dreams at night
I see you when I close my eyes
I just can't seem to shake you, Emily

Emily, you saved the day
Emily, you saved the day 
Emily, you saved my ass
Comments