Bowling For Soup - Emily Chords & Tabs

 

Emily Chords & Tabs

Bowling For Soup Chords & Tabs

Version: 2 Type: Tab 0 ratings
1 star 2 stars 3 stars 4 stars 5 stars
comments

Emily Tab

   
-------------------------------------------------------------------------------
			     Emily – Bowling For Soup
-------------------------------------------------------------------------------
Key: Palm Mute X’s on chord which is immediately before!!!
    >>: Play open and Loud
    p:Pull-off
    h:Hammer-on

By: Mike 

Intro: “It wasn’t supposed to be like this…”
e|-------------------------------------------------------------------------|
B|-------------------------------------------------------------------------|
G|-------------------6XXXXXXXXXXXXXXXX-------------------7XXXXXXXXXXX------|
D|--7>>XXXXXXXXXXXXX-6XXXXXXXXXXXXXXXX-4XXXXXXXXXXXXXXXX-7XXXXXXXXXXX—-php-|
A|--7>>XXXXXXXXXXXXX-4XXXXXXXXXXXXXXXX-4XXXXXXXXXXXXXXXX-5XXXXXXXXXXX-5454-|
E|--5>>XXXXXXXXXXXXX-------------------2XXXXXXXXXXXXXXXX-------------------|

Verse
e|-------------------------------------------------------------------------|
B|-------------------------------------------------------------------------|
G|-------------------66666666666666666-------------------77777777777777777-|
D|--7777777777777777-66666666666666666-44444444444444444-77777777777777777-|
A|--7777777777777777-44444444444444444-44444444444444444-55555555555555555-|
E|--5555555555555555-------------------22222222222222222-------------------|
[ Tab from: http://www.guitartabs.cc/tabs/b/bowling_for_soup/emily_tab_ver_2.html ]
Chorus (X3)
e|-------------------------------------------------------------------------|
B|-------------------------------------------------------------------------|
G|-------------------99999999999999999-------------------77777777777777777-|
D|-77777777777777777-99999999999999999-99999999999999999-77777777777777777-|
A|-77777777777777777-77777777777777777-99999999999999999-55555555555555555-|
E|-55555555555555555-------------------77777777777777777-------------------|

Chorus (…continued)”When you threw me…”
e|---------------------------------------|
B|---------------------------------------|
G|-------------------7XXXXXXX7XX7X7------|
D|-4XXXXXXX-9XXXXXXX-7XXXXXXX7XX7X7—php--|
A|-4XXXXXXX-9XXXXXXX-5XXXXXXX5XX5X5-5454-|
E|-2XXXXXXX-7XXXXXXX---------------------|

Bridge (X4): “She was always such a pretty girl,…”
e|-------------------------|
B|-------------------------|
G|---------9-----------7---|
D|---7----9-9----9----7-7--|
A|--7-7--7------9-9--5-----|
E|-5-----------7-----------|

Solo: Guitar 1 (X4)
e|-------------------------------------------------------------------------|
B|-------------------------------------------------------------------------|
G|-------------------6XXXXXXXXXXXXXXXX-------------------7XXXXXXXXXXX------|
D|--7>>XXXXXXXXXXXXX-6XXXXXXXXXXXXXXXX-4XXXXXXXXXXXXXXXX-7XXXXXXXXXXX—-php-|
A|--7>>XXXXXXXXXXXXX-4XXXXXXXXXXXXXXXX-4XXXXXXXXXXXXXXXX-5XXXXXXXXXXX-5454-|
E|--5>>XXXXXXXXXXXXX-------------------2XXXXXXXXXXXXXXXX-------------------|

Solo: Guitar 2 (X4)
e|-------------------------------------|
B|-------------------------------------|
G|-----------6-4-----------------------|
D|---7-6---------4----4--------p-h-p---|
A|-------4--------------7-5---5-4-5-4--|
E|-------------------------------------|

Please Comment on my first ever tab, and I am only thirteen. And I have
looked in no books or websites!!!
Thanx

===============================================================================
Comments