Bowling For Soup - Down For The Count Chords & Tabs

 

Down For The Count Chords & Tabs

Bowling For Soup Chords & Tabs

Version: 1 Type: Tab 0 ratings
1 star 2 stars 3 stars 4 stars 5 stars
comments

Down For The Count Tab

   
I could only be bothered tabbing the intro and verse

Bass Intro
G|---4---4---4---4---4---4---4---4-|
D|---------------------------------|
A|-2---2---2---2---2---2---2---2---|
E|---------------------------------|
[ Tab from: http://www.guitartabs.cc/tabs/b/bowling_for_soup/down_for_the_count_tab.html ]
Guitar Comes In 0:12
e|---------------------------------------------------------|
B|---------------------------------------------------------|
G|-44~~~---4-------44~~~---4--------99~~~---4--------44~~~-|
D|-44~~~---4-------44~~~---4--------99~~~---4--------44~~~-|
A|-22~~~---2-------22~~~---2--------77~~~---2--------22~~~-|
E|---------------------------------------------------------|

Verse
e|-------------------------------------|
B|-------------------------------------|
G|-------------------------------------|
D|-44444444----------------------------|
A|-22222222-44444444-22222222-44444444-|
E|----------22222222-00000000-22222222-|
   ........ ........ ........ ........
Comments