Bowling For Soup - Dance With You Chords & Tabs

 

Dance With You Chords & Tabs

Bowling For Soup Chords & Tabs

Version: 2 Type: Tab 0 ratings
1 star 2 stars 3 stars 4 stars 5 stars
comments

Dance With You Tab

Bowling for soup - dance with you
tabbed by - jimharvey2k@hotmail.com
tuning - standard


Intro
e|--------------------------------------------------------------------------|
B|--------------------------------------------------------------------------|
G|--------------------------------------------------------------------------|
D|-5-5555555----------------------------------------------------------------|
A|-3-3333333---5-555555----7-77777-5---3-333333-----------------------------|
E|-------------3-333333----5-55555-3---1-111111-----------------------------|x2

Verse
e|--------------------------------------------------------------------------|
B|--------------------------------------------------------------------------|
G|--------------------------------------------------------------------------|
D|-55555555------------------------------55---------------------------------|
A|-33333333----55555555----333333333333--33---------------------------------|
E|-------------33333333----111111111111-------------------------------------|X2
 PM........    ........    ............
Whats is mean to be alone now

e|--------------------------------------------------------------------------|
B|--------------------------------------------------------------------------|
G|--------------------------------------------------------------------------|
D|-55555555-----------------------------------------------------------------|
A|-33333333----55555555----33333333333333-----------------------------------|
E|-------------33333333----11111111111111-----------------------------------|
 PM........    ........    ..............
You got me, did it get you back

e|--------------------------------------------------------------------------|
B|--------------------------------------------------------------------------|
G|--------------------------------------------------------------------------|
D|-55555555-----------------------------------------------------------------|
A|-33333333----55555555----333333333333-------------------------------------|
E|-------------33333333----111111111111--pickslide here---------------------|
PM........     ........    ............
Then you got me again

Chorus
e|--------------------------------------------------------------------------|
B|--------------------------------------------------------------------------|
G|--------------------------------------------------------------------------|
D|-5-5555555----------------------------------------------------------------|
A|-3-3333333---5-555555----7-777777----3-333333-----------------------------|
E|-------------3-333333----5-555555----1-111111-----------------------------|
You got inside through a hole might thin  (it says)

e|--------------------------------------------------------------------------|
B|--------------------------------------------------------------------------|
G|--------------------------------------------------------------------------|
D|-5-5555555----------------------------------------------------------------|
A|-3-3333333---5-555555----3-33333333333333---------------------------------|
E|-------------3-333333----1-11111111111111---------------------------------|
And how you fit i'll never understand

e|--------------------------------------------------------------------------|
B|--------------------------------------------------------------------------|
G|--------------------------------------------------------------------------|
D|-5-5555555----------------------------------------------------------------|
A|-3-3333333---5-555555----7-77777-5---3-333333-----------------------------|
E|-------------3-333333----5-55555-3---1-111111-----------------------------|
But you got into me and i got into you

e|------------------------------------------------------------------------------|
B|------------------------------------------------------------------------------|
G|------------------------------------------------------------------------------|
D|-5-5555555--------------------------------------------------------------------|
A|-3-3333333---5-555555----3-33333333333333---------55--------------------------|
E|-------------3-333333----1-11111111111111---------33--------------------------|
And now i wann do it again

Verse
e|--------------------------------------------------------------------------|
B|--------------------------------------------------------------------------|
G|--------------------------------------------------------------------------|
D|-55555555------------------------------55---------------------------------|
A|-33333333----55555555----333333333333--33---------------------------------|
E|-------------33333333----111111111111-------------------------------------|X2
 PM........    ........    ............
Hows it feel to know now

e|--------------------------------------------------------------------------|
B|--------------------------------------------------------------------------|
G|--------------------------------------------------------------------------|
D|-55555555-----------------------------------------------------------------|
A|-33333333----55555555----33333333333333-----------------------------------|
E|-------------33333333----11111111111111-----------------------------------|
 PM........    ........    ..............
You got me now we cant go back
[ Tab from: http://www.guitartabs.cc/tabs/b/bowling_for_soup/dance_with_you_tab_ver_2.html ]
e|--------------------------------------------------------------------------|
B|--------------------------------------------------------------------------|
G|----------------------------------------------------------------- --------|
D|-5------------------------------------------------------------------------|
A|-3-----------5-----------3------------------------------------------------|
E|-------------3-----------1--pickslide here--------------------------------|
You'll never get me again

Chorus e|----------------------------------------------------------------------------|
B|-----------------------------------------------------------------------------------|
G|-----------------------------------------------------------------------------------|
D|-5-5555555-------------------------------------------------------------------------|
A|-3-3333333---5-555555----7-777777----3-333333--------------------------------------|
E|-------------3-333333----5-555555----1-111111--------------------------------------|
You got inside through a hole might thin  (it says)

e|--------------------------------------------------------------------------|
B|--------------------------------------------------------------------------|
G|--------------------------------------------------------------------------|
D|-5-5555555----------------------------------------------------------------|
A|-3-3333333---5-555555----3-33333333333333---------------------------------|
E|-------------3-333333----1-11111111111111---------------------------------|
And how you fit i'll never understand

e|--------------------------------------------------------------------------|
B|--------------------------------------------------------------------------|
G|--------------------------------------------------------------------------|
D|-5-5555555----------------------------------------------------------------|
A|-3-3333333---5-555555----7-77777-5---3-333333-----------------------------|
E|-------------3-333333----5-55555-3---1-111111-----------------------------|
But you got into me and i got into you

e|--------------------------------------------------------------------------|
B|--------------------------------------------------------------------------|
G|--------------------------------------------------------------------------|
D|-5-5555555----------------------------------------------------------------|
A|-3-3333333---5-555555----3-33333333333333---------------------------------|
E|-------------3-333333----1-11111111111111---------------------------------|
And now i wann do it again


rest (bass line only)
only wanna dance with you X2


Interlude
e|--------------------------------------------------------------------------|
B|--------------------------------------------------------------------------|
G|--------------------------------------------------------------------------|
D|-555555555----------------------------------------------------------------|
A|-333333333---55555555----77777777----33333333-----------------------------|
E|-------------33333333----55555555----11111111-----------------------------|

you go up down turn around merry go round around shake it shake it two times
run around pull me down never gonna come around, i'm never gonna forget you


rest


Chorus e|----------------------------------------------------------------------------|
B|-----------------------------------------------------------------------------------|
G|-----------------------------------------------------------------------------------|
D|-5-5555555-------------------------------------------------------------------------|
A|-3-3333333---5-555555----7-777777----3-333333--------------------------------------|
E|-------------3-333333----5-555555----1-111111--------------------------------------|
You got inside through a hole might thin  (it says)

e|--------------------------------------------------------------------------|
B|--------------------------------------------------------------------------|
G|--------------------------------------------------------------------------|
D|-5-5555555----------------------------------------------------------------|
A|-3-3333333---5-555555----3-33333333333333---------------------------------|
E|-------------3-333333----1-11111111111111---------------------------------|
And how you fit i'll never understand

e|--------------------------------------------------------------------------|
B|--------------------------------------------------------------------------|
G|--------------------------------------------------------------------------|
D|-5-5555555----------------------------------------------------------------|
A|-3-3333333---5-555555----7-77777--5--3-333333-----------------------------|
E|-------------3-333333----5-55555--3--1-111111-----------------------------|
But you got into me and i got into you

e|--------------------------------------------------------------------------|
B|--------------------------------------------------------------------------|
G|--------------------------------------------------------------------------|
D|-5-5555555----------------------------------------------------------------|
A|-3-3333333---5-555555----3-33333333333333---------------------------------|
E|-------------3-333333----1-11111111111111---------------------------------|
And now i wanna do it again


e|--------------------------------------------------------------------------|
B|--------------------------------------------------------------------------|
G|--------------------------------------------------------------------------|
D|-5-5555555----------------------------------------------------------------|
A|-3-3333333---5-555555----3-33333333333333---------------------------------|
E|-------------3-333333----1-11111111111111---------------------------------|

    only wanna dance with you (i wanna do it again)
(repeat till the end)
Comments