Bowling For Soup - Cody Chords & Tabs

 

Cody Chords & Tabs

Bowling For Soup Chords & Tabs

Version: 1 Type: Tab 0 ratings
1 star 2 stars 3 stars 4 stars 5 stars
comments

Cody Tab

   
----------------------------------------------------------------------------
 		       Cody - Bowling For Soup
----------------------------------------------------------------------------
Tabbed by: Kotie A.
Email: LastRockShow@hotmail.com

Tuning: Standard (EADGBe)

No one has really tabbed many BFS songs from their first album (that I know of),
Rock On Honorable Ones, so here's a tab from that CD.

Intro:
e|------------------------------------------------------------|
B|------------------------------------------------------------|
G|-7--7-7-7-7-7-7---------------------------------------------|
D|-7--7-7-7-7-7-7---9--9-9--9--9\5--5-5--5--5/7-7-7-7-7-7-7---|
A|-5--5-5-5-5-5-5---9--9-9--9--9\5--5-5--5--5/7-7-7-7-7-7-7---|
E|----.-.-.-.-.-.---7--7-7--7--7\3--3-3--3--3/5-5-5-5-5-5-5---|
                       . .          . .
Intro (cont): Play Two Times
e|--------------------------------------------------------------------|
B|--------------------------------------------------------------------|
G|-7--7-7--7-7-7------------------------------------------------------|
D|-7--7-7--7-7-7----9--9-9--9-9-9---5--5-5--5-5-5---7-7-7-7-7-7-7-7---|
A|-5--5-5--5-5-5----9--9-9--9-9-9---5--5-5--5-5-5---7-7-7-7-7-7-7-7---|
E|------------------7--7-7--7-7-7---3--3-3--3-3-3---5-5-5-5-5-5-5-5---|

Verse:
e|------------------------------------------------------------|
B|------------------------------------------------------------|
G|-7----------------------------------------------------------|
D|-7-x16---9-------5------4/5-5-5-5-5-5-5-5-5-5-5-5-5-5-5-5---|
A|-5-------9-x16---5-x16--4/5-5-5-5-5-5-5-5-5-5-5-5-5-5-5-5---|
E|---------7-------3------2/3-3-3-3-3-3-3-3-3-3-3-3-3-3-3-3---|

e|---------------------------------|
B|---------------------------------|
G|-7-------------------------------|
D|-7-x16---9-------5-------7-------|
A|-5-------9-x16---5-x16---7-x16---|
E|---------7-------3-------5-------|

Pre-Chorus:               ~Play This Two Times~
e|--------------------|----------------------------|
B|--------------------|O--------------------------O|
G|--------------------|----------------------------| x2
D|-9-9---9--9-9---7---|----5-------7---9-------7---|
A|-9-9---9--9-9---7---|O---5-x22---7---9-x22---7--O|
E|-7-7---7--7-7---5---|----3-------5---7-------5---|

e|-----------------------------------|
B|-----------------------------------|
G|-----------------------------------|
D|-5-5-5-5-5-5-5-5-5-5-5-5-5-5-5-5---|
A|-5-5-5-5-5-5-5-5-5-5-5-5-5-5-5-5---|
E|-3-3-3-3-3-3-3-3-3-3-3-3-3-3-3-3---|

Chorus:                         ~Play This Three Times~
e|-------------------------|----------------------------------|
B|-------------------------|O--------------------------------O|
G|-7-----------------------|----7-----------------------------|
D|-7---7---9---5-5-5-5-5---|----7-x8----7------9------5-------|
A|-5---7---9---5-5-5-5-5---|O---5-------7-x8---9-x8---5-x8---O|
E|-.---5---7---3-3-3-3-3---|------------5------7------3-------|
       .   .
[ Tab from: http://www.guitartabs.cc/tabs/b/bowling_for_soup/cody_tab.html ]
Post Chorus:
e|-----------------------------------------------------|
B|----------------------------------------------------O|
G|-7----------------------------7----------------------|
D|-7---7-7---9-9---4-5-4-5-4----7---7-7---9-9---4-5----|
A|-5---7-7---9-9---4-5-4-5-4----5---7-7---9-9---4-5---O|
E|-----5-5---7-7---2-3-2-3-2--------5-5---7-7---2-3----|
             . .                          . .

VERSE
PRE-CHORUS
CHORUS
POST-CHORUS


[Bass Solo]


Guitar Comes In:
e|-----------------------------------------------------------------|
B|-----------------------------------------------------------------|
G|-7--7--7-7-7-----------------------------------------------------|
D|-7--7--7-7-7---7--7--7-7-7---9--9--9-9-9---5--5-5--5-5--5-5--5---|
A|-5--5--5-5-5---7--7--7-7-7---9--9--9-9-9---5--5-5--5-5--5-5--5---|
E|----.----------5--5--5-5-5---7--7--7-7-7---3--3-3--3-3--3-3--3---|
                    .             .             

e|--------------------------------------------------------------|
B|--------------------------------------------------------------|
G|-7--7--7-7-7--------------------------------------------------|
D|-7--7--7-7-7---7--7--7-7-7---9--9--9-9-9---5--[ Let ----------|
A|-5--5--5-5-5---7--7--7-7-7---9--9--9-9-9---5----- It----------|
E|----.----------5--5--5-5-5---7--7--7-7-7---3-------- Ring ]---|
                    .             .             


Guitar Solo:
e|----------------------------------------------------------|
B|------------------------------------------8\-[ Let--------|
G|-5-7vvv--5----5--7vvv--5---5--7vvv--5-----7\--- It -------|
D|------------7------------7------------7---5\---- Ring ]---|
A|----------------------------------------------------------|
E|----------------------------------------------------------|

e|--------------------------------------------------|
B|--------------------------------------------8b\---|
G|-2-4--4---2----2--4vvv---2-4-6--7vvv--5-----7b\---|
D|-------------4--------------------------7---5b\---|
A|--------------------------------------------------|
E|--------------------------------------------------|


Pre-Chorus:
e|-------------------------------------------|
B|O-----------------------------------------O|
G|---7--7------------------------------------|
D|---7--7---7--7---9--9---5-5-5-5-5-5-5-5----|
A|O--5--5---7--7---9--9---5-5-5-5-5-5-5-5---O|
E|----------5--5---7--7---3-3-3-3-3-3-3-3----|

Chorus:                         ~Play This Three Times~
e|-------------------------|----------------------------------|
B|-------------------------|O--------------------------------O|
G|-7-----------------------|----7-----------------------------|
D|-7---7---9---5-5-5-5-5---|----7-x8----7------9------5-------|
A|-5---7---9---5-5-5-5-5---|O---5-------7-x8---9-x8---5-x8---O|
E|-.---5---7---3-3-3-3-3---|------------5------7------3-------|
       .   .

Post Chorus:
e|-----------------------------------------------------|
B|----------------------------------------------------O|
G|-7----------------------------7----------------------|
D|-7---7-7---9-9---4-5-4-5-4----7---7-7---9-9---4-5----|
A|-5---7-7---9-9---4-5-4-5-4----5---7-7---9-9---4-5---O|
E|-----5-5---7-7---2-3-2-3-2--------5-5---7-7---2-3----|
             . .                          . .

End On:
e|-------|
B|-------|
G|---7---|
D|---7---|
A|---5---|
E|-------|


| /  slide up
| \  slide down
| b  bend
| v  vibrato
| .  Palm note
===========================================================================
Comments