Bowling For Soup - Bitch Song Chords & Tabs

 

Bitch Song Chords & Tabs

Bowling For Soup Chords & Tabs

Version: 2 Type: Bass Tab

Bitch Song Bass Tab

Intro:
G|-------------------|
D|------0-0----------|
A|-----------3-------|
E|-3-3---------------|

Chorus:
G|----------------------------------------------|
D|------------0-0-0-0-0-------------------------|
A|-----------------------3-3-3-3-3-3-3-3-3-3----|
E|--3-3-3-3-3-----------------------------------|


Verse:
G|---------------|--------------------------------------------|
D|------0-0------|--------------------0-0--000000000000-------|
A|-----------3---|----------------------------------------3---|
E|--3-3----------|--3-3--333333333333-------------------------|


Chorus:
G|----------------------------------------------|
D|------------0-0-0-0-0-------------------------| X4
A|-----------------------3-3-3-3-3-3-3-3-3-3----|
E|--3-3-3-3-3-----------------------------------|


Verse 2:
G|-----------------------------------------------------|
D|---------------000000000000--------------------------|
A|----------------------------333333333333333333333333-|
E|--333333333333---------------------------------------|

[ Tab from: http://www.guitartabs.cc/tabs/b/bowling_for_soup/bitch_song_btab_ver_2.html ]
Chorus:
G|----------------------------------------------|
D|------------0-0-0-0-0-------------------------| X4
A|-----------------------3-3-3-3-3-3-3-3-3-3----|
E|--3-3-3-3-3-----------------------------------|


Interlude:

G|------------------------|
D|------------0-----------|
A|--------------------3---|
E|---3--------------------|


Chorus:

G|----------------------------------------------|
D|------------0-0-0-0-0-------------------------| X2
A|-----------------------3-3-3-3-3-3-3-3-3-3----|
E|--3-3-3-3-3-----------------------------------|


Interlude 2:

G|---------------------------|         G|------------------------|
D|------------0--------------|X4 then  D|------000000000---------|
A|----------------------3----|         A|-----------------3------|
E|---3-----------------------|         E|--33--------------------|



Chorus:
G|----------------------------------------------|
D|------------0-0-0-0-0-------------------------| X4
A|-----------------------3-3-3-3-3-3-3-3-3-3----|
E|--3-3-3-3-3-----------------------------------|


Outro:

G|---------------------------------|
D|-----------0---------------------|
A|-------------------3-------------|
E|--3--------------------------3---|



Tabbed by Zach_evil 

If you like this tab or want something tabbed out for bass then email me at
zach_evil@hotmail.com