Bowling For Soup - Bipolar Chords & Tabs

 

Bipolar Chords & Tabs

Bowling For Soup Chords & Tabs

Version: 1 Type: Tab 0 ratings
1 star 2 stars 3 stars 4 stars 5 stars
comments

Bipolar Tab

Song: Bipolar
Band: Bowling For Soup
Album: 1985 (single)
Tuning: Standard
Tabber: Rivett *'-'*

This is a good song off of the 1985 single. I cant believe its not on the album.
I intend on tabbing the whole song but I'll just submit the intro for now.

[ Tab from: http://www.guitartabs.cc/tabs/b/bowling_for_soup/bipolar_tab.html ]
e|---------------------------|
B|------------6--------------|
G|---------------------------|
D|---------------------------|
A|-7-7-7-7-7------7-7-7-7-7--|
E|-5-5-5-5-5------5-5-5-5-5--|


e|--------------------------------|
B|-----------6--------------------|
G|--------------------------------|
D|--------------------------------|
A|-7-7-7-7-7------7-7-7-7-7-------|
E|-5-5-5-5-5------5-5-5-5-5-5s7s5-|

Theres the intro. I'm pretty sure it plays through the verses without the
6s on the B strign or the 5s7s5 bit.

Cheers!
Comments