Bowling For Soup - Almost Chords & Tabs

 

Almost Chords & Tabs

Bowling For Soup Chords & Tabs

Version: 3 Type: Tab 0 ratings
1 star 2 stars 3 stars 4 stars 5 stars
comments

Almost Tab

Hello Guys! I see bowling for soup tomorrow so i thought i'd tab this cause no-one else has! (I love Joanne)
This is my First Tab
3njoy!

INTRO

E|----------------------------------------------------------------||
B|------5p4p2-0h2h4--------5p4p2-0h2h4------5p4p2-0h2h4-----------||
G|---4------------------4----------------4---------------4--------||
D|--4-4----------------4-4--------------4-4-------------4-4-------||
A|-2--------------------------------------------------------------||
E|-------------------2-----------------4---------------0----------||


E|--------------------------------||
B|-5p4p2-0h2h4--------------------||
G|--------------------------------||
D|--------------------------------||
A|--------------------------------||
E|--------------------------------||

 
Intro 2
guitar 1
E|----------------------------------------------------------------||
B|----------------------------------------------------------------||
G|-8-6/-8-4-------9-8-6-------------------------------------------||
D|-x-x/-x-x--x3---x-x-x-------------------------------------------||
A|-6-4/-6-2-------7-6-4-------------------------------------------||
E|----------------------------------------------------------------||

 Intro 2
 guitar 2
E|----------------------------------------------------------------||
B|----------------------------------------------------------------||
G|-4-4-4-4--------------------------------------------------------||
D|-4-4-4-4-4-4-4-4-6-6-6-6-2-2-2-2--------------------------------||
A|-2-2-2-2-4-4-4-4-6-6-6-6-2-2-2-2--------------------------------||
E|---------2-2-2-2-4-4-4-4-0-0-0-0--------------------------------||

Verse
[ Tab from: http://www.guitartabs.cc/tabs/b/bowling_for_soup/almost_tab_ver_3.html ]
E|----------------------------------------------------------------||
B|----------------------------------------------------------------||
G|-4-4-4-4--------------------------------------------------------||
D|-4-4-4-4--4-4-4-4--6-6-6-6--2-2-2-2-----------------------------||
A|-2-2-2-2--4-4-4-4--6-6-6-6--2-2-2-2-----------------------------||
E|----------2-2-2-2--4-4-4-4--0-0-0-0-----------------------------||


Chorus

E|----------------------------------------------------------------||
B|----------------------------------------------------------------||
G|-4-4-4-4-4-4----------------------------------------------------||
D|-4-4-4-4-4-4--4-4-4-4-4-4--6-6-6-6-6-6--2-2-2-2-2---------------||
A|-2-2-2-2-2-2--4-4-4-4-4-4--6-6-6-6-6-6--2-2-2-2-2---------------||
E|--------------2-2-2-2-2-2--4-4-4-4-4-4--0-0-0-0-0---------------||

on second and third chorus on the third and fourth bit play:


E|----------------------------------------------------------------||
B|----------------------------------------------------------------||
G|--4--4--4--4--------------------------4~------------------------||
D|--4--4--4--4--4--4--4--4--2--2--2--2--4~------------------------||
A|--2--2--2--2--4--4--4--4--2--2--2--2--2~------------------------||
E|--------------2--2--2--2--0--0--0--0----------------------------||

Bridge this is all i could work out 4 it (Sorry Guys)

E|----------------------------------------------------------------||
B|----------------------------------------------------------------||
G|----------------------------------------------------------------||
D|----------------------------------------------------------------||
A|----------------------------------------------------------------||
E|-2222222222222-000000000-777777777777-x?------------------------||

There you go guys! E-mail me at: emusaregay@hotmail.com

Bye!
Comments