Bowling For Soup - 1985 Chords & Tabs

 

1985 Chords & Tabs

Bowling For Soup Chords & Tabs

Version: 6 Type: Tab 0 ratings
1 star 2 stars 3 stars 4 stars 5 stars
comments

1985 Tab

   
1985 by:Bowling For Soup
Tab by: Aaron Meredith
Tuning: down 1/2 step   Eb Ab Db Gb Bb Eb

\ = slide down 
/ = slide up 
..= palm mute (pm)
~ = let ring 
* = Harmonic  

Intro: Guitar 1:
e|---------------------------------------|
B|---------------------------------------|
G|--55555555-----------------------------|
D|--55555555-33333333-77777777-55555555--|
A|--33333333-33333333-77777777-55555555--|
E|-----------11111111-55555555-33333333--|

e|------------------------------------------------------|
B|------------------------------------------------------|
G|--55555555----------------------5*-----5*-----5*------|
D|--55555555-33333333-77777777-55--5*-55--5*-55--5*-55--|
A|--33333333-33333333-77777777-55-----55-----55-----55--|
E|-----------11111111-55555555-33-----33-----33-----33--|

Guitar 2:
e|------------------------------------------------------------
B|------------------------------------------------------------
G|----7/9--5/7/9--5/7\5/7/9\7\5--5/7/9--5/7/9--5/7\5/7/9\7----
D|----x-x--x-x-x--x-x-x-x-x-x-x--x-x-x--x-x-x--x-x-x-x-x-x----
A|----5/7--3/5/7--3/5/3/5/7\5\3--3/5/7--3/5/7--3/5\3/5/7\5----
E|------------------------------------------------------------

e ----------------------------------------------------------------|
B ----------------------------------------------------------------|
G --5/7/9--5/7/9--5/7\5/7/9\7\5--5/7/9--5/7/9---------------------|
D --x-x-x--x-x-x--x-x-x-x-x-x-x--x-x-x--x-x-x----55--55--55--55---|
A --3/5/7--3/5/7--3/5\3/5/7/5\3--3/5/7--3/5/7----55--55--55--55---|
E -----------------------------------------------33--33--33--33---|


Verse: Guitar 1
e|------------------------------------------|
B|------------------------------------------|
G|--5-5-----------------5-5-----------------|
D|--5-5--3-3--7-7--5-5--5-5--3-3--7-7--5-5--|
A|--3-3--3-3--7-7--5-5--3-3--3-3--7-7--5-5--|
E|-------1-1--5-5--3-3-------1-1--5-5--3-3--|

e|--------------------------------------------------------------------------|
B|--------------------------------------------------------------------------|
G|5----------------------------5-----------------------5*-----5*-----5*-----|
D|5-(x8)-3------7------5-------5-(x8)-3------7------55--5*-55--5*-55--5*-55-|
A|3------3-(x8)-7-(x8)-5-(x8)--3------3-(x8)-7-(x8)-55-----55-----55-----55-|
E|-------1------5------3--------------1------5------33-----33-----33-----33-|
  pm...............................................

Guitar 2:
e|--10--8----------------7--7---|---10--8---------------------------------|
B|----8--8-8-----------8---8----|-----8--8-8------------------------------|
G|-----9--9--(x3)---7-7-7-7-----|------9--9--(x3)-------------------------|
D|10----------------------------|-10----------------55---55---55---55-----|
A|------------------------------|-------------------55---55---55---55-----|
E|------------------------------|-------------------33---33---33---33-----|


Chorus: Guitar 1
e|--------------------------------------------------------------------------|
B|--------------------------------------------------------------------------|
G|55555555----------------------------55555555------------------------------|
D|55555555-33333333-77777777-88888888-55555555-33333333-77777777-88-88-88-88|
A|33333333-33333333-77777777-88888888-33333333-33333333-77777777-88-88-88-88|
E|---------11111111-55555555-66666666----------11111111-55555555-66-66-66-66|

Guitar 2:
e|10-12-8---------8-10-8-10---|10-12-8----------8-10-8-10-----------------|
B|--------8--(x6)--8--8-8--8--|--------8--(x4)---8--8-8--8----------------|
G|----------------------------|-------------------------------------------|
D|----------------------------|----------------------------88--88--88--88-|
A|----------------------------|----------------------------88--88--88--88-|
E|----------------------------|----------------------------66--66--66--66-|


Intro again Guitar 1:
e|---------------------------------------|
B|---------------------------------------|
G|--55555555-----------------------------|
D|--55555555-33333333-77777777-55555555--|
A|--33333333-33333333-77777777-55555555--|
E|-----------11111111-55555555-33333333--|

Guitar 2:
e|------------------------------------------------------------|
B|------------------------------------------------------------|
G|----6/8--5/7/9--5/7\5/7/9\7\5--5/7/9--5/7/9--5/7\5/7/9\7----|
D|----x-x--x-x-x--x-x-x-x-x-x-x--x-x-x--x-x-x--x-x-x-x-x-x----|
A|----5/7--3/5/7--3/5/3/5/7\5\3--3/5/7--3/5/7--3/5\3/5/7\5----|
E|------------------------------------------------------------|


Verse: Guitar 1
e|------------------------------------------|
B|------------------------------------------|
G|--5-5-----------------5-5-----------------|
D|--5-5--3-3--7-7--5-5--5-5--3-3--7-7--5-5--|
A|--3-3--3-3--7-7--5-5--3-3--3-3--7-7--5-5--|
E|-------1-1--5-5--3-3-------1-1--5-5--3-3--|
[ Tab from: http://www.guitartabs.cc/tabs/b/bowling_for_soup/1985_tab_ver_6.html ]
e|----------------------------------------------------------------------|
B|----------------------------------------------------------------------|
G|5----------------------------5-----------------------5*-----5*--------|
D|5-(x8)-3------7------5-------5-(x8)-3------7------55--5*-55--5*-55----|
A|3------3-(x8)-7-(x8)-5-(x8)--3------3-(x8)-7-(x8)-55-----55-----55----|
E|-------1------5------3--------------1------5------33-----33-----33----|
  pm...............................................

Guitar 2:
e|--10--8----------------7--7---|---10--8-------------------------------|
B|----8--8-8-----------8---8----|-----8--8-8----------------------------|
G|-----9--9--(x3)---7-7-7-7-----|------9--9--(x3)-----------------------|
D|10----------------------------|-10----------------55---55---55--------|
A|------------------------------|-------------------55---55---55--------|
E|------------------------------|-------------------33---33---33--------|


Chorus: Guitar 1
e|--------------------------------------------------------------------------|
B|--------------------------------------------------------------------------|
G|55555555----------------------------55555555------------------------------|
D|55555555-33333333-77777777-88888888-55555555-33333333-77777777-88-88-88-88|
A|33333333-33333333-77777777-88888888-33333333-33333333-77777777-88-88-88-88|
E|---------11111111-55555555-66666666----------11111111-55555555-66-66-66-66|

Guitar 2:
e|10-12-8---------8-10-8-10---|10-12-8----------8-10-8-10-----------------|
B|--------8--(x6)--8--8-8--8--|--------8--(x4)---8--8-8--8----------------|
G|----------------------------|-------------------------------------------|
D|----------------------------|----------------------------88--88--88--88-|
A|----------------------------|----------------------------88--88--88--88-|
E|----------------------------|----------------------------66--66--66--88-|


Solo: Guitar 1
e|---------------------------------------|
B|---------------------------------------|
G|--55555555-----------------------------|
D|--55555555-33333333-77777777-55555555--|
A|--33333333-33333333-77777777-55555555--|
E|-----------11111111-55555555-33333333--|

Guitar 2:
e|--------------------------------------------------|
B|------------------------8b~~~~~-6-5--(harmony)----|
G|--9-7-5--5-7-9--9-7-5---9b~~~~~-7-5--(main guit.)-|
D|--------------------------------------------------|
A|--------------------------------------------------|
E|--------------------------------------------------|


Verse:
e|----8-10-8----------8-----7---|-----8-10-8------------------------|
B|---8----8-8--------8-8---8-8--|----8----8-8-----------------------|
G|--9---------(x3)--9-----7-----|---9---------(x3)------------------|
D|10----------------------------|-10----------------55---55---55----|
A|------------------------------|-------------------55---55---55----|
E|------------------------------|-------------------33---33---33----|


Chorus: Guitar 1
e|------------------------------------------------------------------------|
B|------------------------------------------------------------------------|
G|55555555----------------------------55555555----------------------------|
D|55555555-33333333-77777777-88888888-55555555-33333333-77777777-88888888-|
A|33333333-33333333-77777777-88888888-33333333-33333333-77777777-88888888-|
E|---------11111111-55555555-66666666----------11111111-55555555-66666666-|

Guitar 2:
e|10-12-8---------8-10-8-10---|10-12-8----------8-10-8-10-------------|
B|--------8--(x6)--8--8-8--8--|--------8--(x4)---8--8-8--8------------|
G|----------------------------|---------------------------------------|
D|----------------------------|----------------------------88888888---|
A|----------------------------|----------------------------88888888---|
E|----------------------------|----------------------------66666666---|


Chorus: repeat and end
e|------------------------------------------------------------------------|
B|------------------------------------------------------------------------|
G|55555555----------------------------55555555----------------------------|
D|55555555-33333333-77777777-88888888-55555555-33333333-77777777-88-88-88-|
A|33333333-33333333-77777777-88888888-33333333-33333333-77777777-88-88-88-|
E|---------11111111-55555555-66666666----------11111111-55555555-66-66-66-|

Guitar 2:
e|10-12-8---------8-10-8-10---|10-12-8----------8-10-8-10---------------|
B|--------8--(x6)--8--8-8--8--|--------8--(x4)---8--8-8--8--------------|
G|----------------------------|-----------------------------------------|
D|----------------------------|----------------------------88--88--88---|
A|----------------------------|----------------------------88--88--88---|
E|----------------------------|----------------------------66--66--66---|


The only part I had trouble hearing was Chorus guitar 2. Other than that, it should be right on!
Comments