Bowling For Soup - 1985 Chords & Tabs

 

1985 Chords & Tabs

Bowling For Soup Chords & Tabs

Version: 3 Type: Tab 0 ratings
1 star 2 stars 3 stars 4 stars 5 stars
comments

1985 Tab

this songs of bowling for soups new album aiming to be released this summer

INTRO PART 1
e/------------------------------|
g/------------------------------|
b/--4/6/8--4/6/8--4-6-4-6-8-6-4-|
d/--x-x-x--x-x-x--x-x-x-x-x-x-x-|
a/--2/4/6--2/4/6--2-4-2-4-6-4-2-|
e/------------------------------|

play this twice but the 2nd time leave the last -6- ring out
                                                -x-
                                                -4-

INTRO PART 2 (repeat the above but instead of ringing out -6- play...)
                                                          -x-
                                                          -4-
e/------------------------------|
g/------------------------------|
b/---6-6-xx-6-6-xx-6-6-xx-6-6\--|
d/---x-x-xx-x-x-xx-x-x-xx-x-x\--|
a/---4-4-xx-4-4-xx-4-4-xx-4-4\--|
e/------------------------------|

VERSE 1 (downstrokes)
e/-------------------------|
b/-------------------------|
g/--4-4--------------------| x2
d/--4-4---2-2---6-6---4-4--|
a/--2-2---2-2---6-6---4-4--|
e/--------0-0---4-4---2-2--|

(she was gonna be an actress...)
e/-------------------------------------------------|
b/-------------------------------------------------|
g/--4----------------------------------------------|
d/--4-4444444---2-----------6-----------4----------|
a/--2-2222222---2-2222222---6-6666666---4-4444444--|
e/--------------0-0000000---4-4444444---2-2222222--|
    pm.......     .......     .......     .......
[ Tab from: http://www.guitartabs.cc/tabs/b/bowling_for_soup/1985_tab_ver_3.html ]
e/---------------------------------------------------------------|
b/---------------------------------------------------------------|
g/--4------------------------------------------------------------|
d/--4-4444444---2-----------6-----------4-4-xx-4-4-xx-4-4-xx-4---|
a/--2-2222222---2-2222222---6-6666666---4-4-xx-4-4-xx-4-4-xx-4---|
e/--------------0-0000000---4-4444444---2-2-xx-2-2-xx-2-2-xx-2---|
    pm.......     .......     .......

CHORUS - GUITAR 1
e/------------------------------------------------------------|
b/------------------------------------------------------------| (these r ment
g/--4444444444--9999999999---------------11111111111111111111-|  2 be "11"'s)
d/--4444444444--9999999999--6666666666---11111111111111111111-|
a/--2222222222--7777777777--6666666666----9-9-9-9-9-9-9-9-9-9-|
e/--------------------------4444444444------------------------|

CHORUS - GUITAR 2
e/------------------------------------------------------------|
b/------------------------------------------------------------|
g/--4444444444------------------------------------------------|
d/--4444444444--2222222222--6666666666--4444444444------------|
a/--2222222222--2222222222--6666666666--4444444444------------|
e/--------------0000000000--4444444444--2222222222------------|

END THE CHORUS THE SAME WAY YOU END THE VERSE

REPEAT PART 1 OF INTRO AND WHOLE VERSE

REPEAT CHORUS

SOLO (not sure) - play the chorus for the backin guitar in the solo
e/-----------------------------------------|
b/-----------------------------------------|
g/--8-6-4--4-6-8--8-6-4--9-8-9-8-9-8-6-4---|
d/-----------------------------------------|
a/-----------------------------------------|
e/-----------------------------------------|

for the rest of the song just play the chorus

any suggestions plz email me: matt_barry182@msn.com
Comments