Bowling For Soup - 1985 Chords & Tabs

 

1985 Chords & Tabs

Bowling For Soup Chords & Tabs

Version: 2 Type: Tab 4 ratings
1 star 2 stars 3 stars 4 stars 5 stars
comments

1985 Tab

Song:1985
Artist: Bowling For Soup
Album: 1985

   Intro x2 / Riff 
E|----------------------------------------------------------------|
B|----------------------------------------------------------------|
G|----------------------------------------------------------------|
D|----------------------------------------------------------------|
A|-2-4-6--2-4-6--6-4-2-4-6-4-2--2-2-4-6--2-4-6--4-6-4-2-4-6-4-----|
E|----------------------------------------------------------------|


   Verse: 4x
     
E|---------------------|
B|---------------------|
G|--4------------------|
D|--4----2----6----4---|
A|--2----2----6----4---|
E|-------0----4----2---|


  Chorus: 2x 

E|-----------------------|
B|-----------------------|
G|--4--------------------|
D|--4----2----6----4-----|
A|--2----2----6----4-----|
E|-------0----4----2-----|

[ Tab from: http://www.guitartabs.cc/tabs/b/bowling_for_soup/1985_tab_ver_2.html ]
  Riff: 1x
E|----------------------------------------------------------------|
B|----------------------------------------------------------------|
G|----------------------------------------------------------------|
D|----------------------------------------------------------------|
A|-2-4-6--2-4-6--6-4-2-4-6-4-2--2-2-4-6--2-4-6--4-6-4-2-4-6-4-----|
E|----------------------------------------------------------------|


  Verse: 4x

E|---------------------|
B|---------------------|
G|--4------------------|
D|--4----2----6----4---|
A|--2----2----6----4---|
E|-------0----4----2---|



  Chorus: 2x 

E|-----------------------|
B|-----------------------|
G|--4--------------------|
D|--4----2----6----4-----|
A|--2----2----6----4-----|
E|-------0----4----2-----|
   Solo:    /=slide up  \=slide down

E|----------------------------------------------------------------|
B|----------------------------------------------------------------|
G|----------------------------------------------------------------|
D|-----------------------9\8/9\8/9\8\-6\-4------------------------|
A|--6-4-2--2-4-6--6-4-2--7\6/7\6/7\6\-4\-2------------------------|
E|----------------------------------------------------------------|

   


That’s pretty much it, you’ll have to listen to the song to find the rhythm.  

Any problems, e-mail bullfrog2889@yahoo.com 
Comments