Bow Wow Wow - I Want Candy Chords & Tabs

 

I Want Candy Chords & Tabs

Bow Wow Wow Chords & Tabs

Version: 1 Type: Tab 0 ratings
1 star 2 stars 3 stars 4 stars 5 stars
comments

I Want Candy Tab

ARTIST: Bow Wow Wow
TITLE: I Want Candy (cover of the Strangeloves)
ALBUM: I Want Candy



--------------------------------------------------------------------------------


play muted/distorted like this throughout the whole song:
e----x-x-x--x-x--x-x-x--xxxx--x-x--x-x-x----
b----x-x-x--x-x--x-x-x--xxxx--x-x--x-x-x----
g----x-x-x--x-x--x-x-x--xxxx--x-x--x-x-x----
d----x-x-x--x-x--x-x-x--xxxx--x-x--x-x-x----
a----x-x-x--x-x--x-x-x--xxxx--x-x--x-x-x----
e----x-x-x--x-x--x-x-x--xxxx--x-x--x-x-x----

lead:
e----------------------------------------------------------------
b----------------------------------------------------------------
g--------------------------------9--11--12-11---9---12---11---9--
d------------------9--11--12-12----------------------------------
a-----9h10--12-12------------------------------------------------
e----------------------------------------------------------------

e-------------------------------
b-------------------------------
g---------------9---------------
d----12-11--12-----11-12--------
a-------------------------------
e-------------------------------
[ Tab from: http://www.guitartabs.cc/tabs/b/bow_wow_wow/i_want_candy_tab.html ]
e-------------------------------------------------------------------
b-----10--12-10-----------------------------------------------------
g--12------------12--11--12--11--9--12-11--9--------------9---------
d---------------------------------------------12-11--12------11--12-
a-------------------------------------------------------------------
e-------------------------------------------------------------------


e-----------------------------------------------------
b-------8--10\------------8--10\----------------------
g-------9--11\------------9--11\----------------------
d-----------------------------------------------------
a-----------------------------------------------------
e-----------------------------------------------------



I know a guy who's tough but sweet
He's so fine, he can't be beat
He's got everything that I desire
Sets the summer sun on fire 
I want candy, I want candy

Go to see him when the sun goes down
Ain't no finer boy in town
You're my guy, just what the doctor ordered
So sweet, you make my mouth water

I want candy, I want candy

Candy on the beach, there's nothing better
But I like candy when it's wrapped in a sweater
Some day soon I'll make you mine,
Then I'll have candy all the time.

 undefined   undefined More...    Sarah Michelle GellarPhoto Gallery   [Close]    Sarah Michelle GellarPhoto Gallery   [Close]   Yahoo! Movies Exclusive  



Comments