Bouncing Souls - Whatever I Want Chords & Tabs

 

Whatever I Want Chords & Tabs

Bouncing Souls Chords & Tabs

Version: 2 Type: Bass Tab 0 ratings
1 star 2 stars 3 stars 4 stars 5 stars
comments

Whatever I Want Bass Tab

Author/Artist: The bouncing souls
Title: Whatever I want ( Whatever that is)
Album: The bouncing souls
Transcribed by: SK8BOB
sk8bob@geocities.com
I'm pretty sure that's it. It sound correct on my bass.

------------------000-222-444-555--|----------------------|
-0----0---0---0------------------------|----777-555444---|
-----------------------------------------|555------------74--|
-----------------------------------------|---------------------|
Intro play 4 times
[ Tab from: http://www.guitartabs.cc/tabs/b/bouncing_souls/whatever_i_want_btab_ver_2.html ]
-----------------------------------------------
-----------------------------------------------
---555-8-5558-555-8-555-8-555-8----------------
---------8------8-------8------8-------8---------------
some kinda interlude or something like that

-----------------------------------------------
-----------------------------------------------
-5555-8-0000-88888-5555------------------------
-----------------------------------------------
verse

-----------------------------------------------
-----3----------------3-------------3------------3--------
-333---5555-0000---5555--333-5555-0000-5555----
-----------------------------------------------
chorus. and now you just mix and match ok. Have fun.
Comments