Bouncing Souls - True Believers Chords & Tabs

 

True Believers Chords & Tabs

Bouncing Souls Chords & Tabs

Version: 2 Type: Tab 1 rating
1 star 2 stars 3 stars 4 stars 5 stars
comments

True Believers Tab

bouncing souls - true believers

(Intro:) 
-------------------|--------------------- 
-------------------|--------------------- 
-------5-----------|-------5---12---12--- 
---3---5---5---5---|---3---5---12---12--- 
---3---3---5---5---|---3---3---10---10--- 
---1-------3---3---|---1----------------- 
"I've met some..." "From all these..." 

(Main Riff:) 
------------------- 
------------------- 
-------5-------12-- 
---3---5x8-5---12x8 
---3x8-3---5x8-10-- 
---1-------3------- 

(Solo:) 
----------------------------------------------------------------------- 
----------------------------------------------------------------------- 
----------------------------------------------------------------------- 
--------------------------------7-5---5-5---5---5-7-5---5-5---8-8-8---- 
--8-8-8-8-8-8-7-8---8-8-7-8-7-8-----------8---8-------------8-------8-- 
-----------------------------------------------------------------------
[ Tab from: http://www.guitartabs.cc/tabs/b/bouncing_souls/true_believers_tab_ver_2.html ]
--------------------------------------------------------------------------------- 
--------------------------------------------------------------------------------- 
--10-10-10-10-10-10-10-9---9-9-9-9-9-9-5-7---7-7-5-7-5-7-9-7---7-7-5-10-10-10-5-- 
--------------------------------------------------------------------------------- 
--------------------------------------------------------------------------------- 
--------------------------------------------------------------------------------- 

(Bridge:1) 
--------------- 
--------------- 
-------5------- 
---3---5---5--- 
---3---3---5x6- 
---1-------3--- 


(Verse:2)
------------------------|--------------------------------------- 
------------------------|--------------p.m------------------- ---
---------(bass)---------|---p.m--------5-5-5------p.m-------12--- 
------------------------|---3-3-3------5-5-5--X4--5-5-5-----12-x4 
------------------------|---3-3-3--X4--3-3-3------5-5-5--X4-10--- 
------------------------|---1-1-1-----------------3-3-3------ ---
"Well you can fight..." "True believers! All the way..." 


(Ending) 
------------------------ 
------------------------ 
-----------5------------ 
---5---3---5------------ 
---5---3---3------------ 
---3---1---------------- 
"True belieeeeevvvveeeerrrrssssss" 
........................................................................
Song Order: 

Intro: 
Main Riff (x2) with Solo: 
Main Riff (x2): 
Bridge (x4): 
Verse 2 (x1): 
Main Riff (x2) with Solo: 
Main Riff (x2): 
Bridge1 (x3): 
Ending (x1): 
Comments