Bouncing Souls - True Believers Chords & Tabs

 

True Believers Chords & Tabs

Bouncing Souls Chords & Tabs

Version: 1 Type: Bass Tab 0 ratings
1 star 2 stars 3 stars 4 stars 5 stars
comments

True Believers Bass Tab

The Bouncing Souls 
-------------------
 .True Believers
-----------------

Intro:

G|------------------------------------------7-7-7--|
D|-------------3-5--3-2-0---------------3-5--------|
A|-8--3----3-5-------------3--8-3---3-5------------|
E|------3-------------------------3----------------|

Main riff:
[ Tab from: http://www.guitartabs.cc/tabs/b/bouncing_souls/true_believers_btab.html ]
G|--------------------------------------7-7-7-7-|
D|--------------------------------3-5-5---------|
A|-----------3-3-3-3-3-------3-5----------------|
E|-1-1-1-1-1-----------3-3-3--------------------|

Bridge + end:
        x4
G|-------|----------|
D|-------|----------|
A|---3---|-----3/15-|
E|-1---3-|-3-1------|

XbertX
Comments