Bouncing Souls - The Something Special Chords & Tabs

 

The Something Special Chords & Tabs

Bouncing Souls Chords & Tabs

Version: 1 Type: Tab 0 ratings
1 star 2 stars 3 stars 4 stars 5 stars
comments

The Something Special Tab

Band:The Bouncing Souls
Song:The Something Special
Album:How I Spent My Summer Vacation

Tuning:Standard EADGBe
Notes:This song's pretty easy and if you listen to the album you should get it
right away. NOTE: NO RYTHEMS SHOWN EXCEPT INTRO.

Intro:"We can't agree on a single thing, I don't know why. We almost killed eachother,
on the inside. I manged to be a jerk anyway. It dosen't have to be this way."
|---------------------------------------------------------------------------|
|---------------------------------------------------------------------------|
|---------------------------------------------------------------------------|
|----9---9---9---9---9---9---9---9---2---2---2---2---2---2---2---0----------|
|--7---7---7---7---6---6---6---6---0---0---0---0---0---0---0---0------------|
|---------------------------------------------------------------------------|
[ Tab from: http://www.guitartabs.cc/tabs/b/bouncing_souls/the_something_special_tab.html ]
Chorus:"Forget about, the things I said. I make no Excuse for them. I want to
start again. I want to start again."
|---------------------------------------------------------------------------|
|---10--10--10--10----------------------------------------------------------|
|-9-9-9-9-9-9-9-9-----------------------------------------------------------|
|-9-7-9-7-9-7-9-7-9-9---9-9-------------------------------------------------|
|-7---7---7---7---7-6-7-7-6-7-----------------------------------------------|
|---------------------5-----5-----------------------------------------------|
Bridge:
|---------------------------------------------------------------------------|
|---------------------------------------------------------------------------|
|-9-----9-------------------------------------------------------------------|
|-9-9-7-9-9-7---------------------------------------------------------------|
|-7-9-7-7-9-7---------------------------------------------------------------|
|---7-5---7-5---------------------------------------------------------------|
Verse:"We all walk our seperate ways i don't know why. I hope we meet again,
somewhere someday. I can't change the way you feel. It dosen't have to be this way." 
|-0-----------------|
|-5-----------------| Yes you will repeat that this whole verse
|-------------------|
|-------------------|
|-------------------|
|-------------------|
Chorus:Same as first.
Bridge:"I think about the two of us I don't know why. I feel good on the inside.
It's different now, I'm one I stand alone. I have to be this way. I have to be this
way."
|-0-----------|
|-5-----------| Yep, repeat it the whole bridge.
|-------------|
|-------------|
|-------------|
|-------------|
Final Chorus:"Forget about, the things i've said. I make no, excuse for them. I want
to start again. I want to start again. I want to start again. I want to start again."
|---------------------------------------------------------------------------|
|---10--10--10--10----------------------------------------------------------|
|-9-9-9-9-9-9-9-9-----------------------------------------------------------|
|-9-7-9-7-9-7-9-7-9-9---9-9---9-9---9-9-------------------------------------|
|-7---7---7---7---7-6-7-7-6-7-7-6-7-7-6-------------------------------------|
|---------------------5-----5-----5-----------------------------------------|
Outro:"Forget about, the things I've said..."
|-0---------|
|-5---------|Repeat until fade out.
|-----------|
|-----------|
|-----------|
|-----------|
Comments