Bouncing Souls - The Screamer Chords & Tabs

 

The Screamer Chords & Tabs

Bouncing Souls Chords & Tabs

Version: 2 Type: Bass Tab 0 ratings
1 star 2 stars 3 stars 4 stars 5 stars
comments

The Screamer Bass Tab

Author/Artist: Bouncing souls
Title: The screamer
Album: The bouncing souls
Transcribed by: SK8BOB
Email sk8bob@geocities.com

---------------------------------
----55-3-------------------------
-55------000-34------------------
---------------------------------
Play 6 times
[ Tab from: http://www.guitartabs.cc/tabs/b/bouncing_souls/the_screamer_btab_ver_2.html ]
----55-3-------------------------
-55------000-34------------------
---------------------------------
---------------------------------
play 2 times

---------------------------------
-677-677-677777-455-455-4555332--
----------------------------------
----------------------------------
chorus thing

-------------------------------------------------
-------------------------------------------------
--55---3-4---55--55---34-55--55---34-55---34-55--
-------------------------------------------------
play after second time the chorus thing
Comments