Bouncing Souls - Old School Chords & Tabs

 

Old School Chords & Tabs

Bouncing Souls Chords & Tabs

Version: 1 Type: Bass Tab 0 ratings
1 star 2 stars 3 stars 4 stars 5 stars
comments

Old School Bass Tab

   
-------------------------------------------------------------------------------
			     Old School - The Bouncing Souls
-------------------------------------------------------------------------------

Tabbed By : Basscase
e-mail: Basscase@gmail.com

Tuning: Standard (EADG)

Intro, Bridge
G|--------------------|
D|------9999----------|
A|-----------777------|
E|---------------0----|
[ Tab from: http://www.guitartabs.cc/tabs/b/bouncing_souls/old_school_btab.html ]
Chorus
G|-------------------------------------------|
D|--------------------------------44-55-77---|
A|-----777-777-777-555---77777-55------------|
E|--0------------------0---------------------|

Verse
G|--------------------|
D|--------6--7--9-----|
A|-----7--------------|
E|--------------------|

Part right after verse 
first time around, after 
the verse the second time 
it goes into the chorus
G|---------------------|
D|--------1/9----------|
A|---------------------|
E|----0----------------|

**Tip** Use upstrokes on the 
Verse, it give more of an 
anger vibe

| /  slide up
| \  slide down
| h  hammer-on
| p  pull-off
| ~  vibrato
| +  harmonic
| x  Mute note
===============================================================================
Comments