Bouncing Souls - Manthem Chords & Tabs

 

Manthem Chords & Tabs

Bouncing Souls Chords & Tabs

Version: 1 Type: Bass Tab 0 ratings
1 star 2 stars 3 stars 4 stars 5 stars
comments

Manthem Bass Tab

   
Intro (bass only)last part played on E (it wouldnt fit)
G|-----------------------------------------------------------------|
D|-----------------------------------------------------------------|
A|-5-5-5-5-5-5-5-5-------------------------------------------------|
E|-----------------3-3-3-3-3-3-3-3-5-5-5-5-5-5-5-5-5-5-5-5-5-5-5-5-|

Verse (guitar follows this too)
G|---------------------------------------------------------|
D|---------------------------------------------------------|
A|-5-5-5-5-5-5-5-5-----------------------------------------|
E|-----------------3-3-3-3-3-3-3-3-5-5-5-5-5-5-5-5-5-5-5-5-|
[ Tab from: http://www.guitartabs.cc/tabs/b/bouncing_souls/manthem_btab.html ]
then
G|---------------------------------------------------------|
D|---------------------------------------------------------|
A|-5-------------------------------------------------------|
E|---5-----------------------------------------------------|
Do Verse Again
THEN
G|-----------------------------------------------------------------|
D|-----------------------------------------------------------------|
A|-5-5-5-5-5-5-5-5-----------------5-5-5-5-5-5-5-5-----------------|
E|-----------------3-3-3-3-3-3-3-3-----------------5-5-5-5-5-5-5-5-|

on E
more verse, it changes here, you'll hear it if you listen....

G|-----------------------------------------------------------------|
D|-----------------------------------------------------------------|
A|-5-5-5-5-5-5-5-5-------------------------------------------------|
E|-----------------3-3-3-3-3-3-3-3-5-5-5-5-5-5-5-5-5-5-5-5-5-5-5-5-|
...Rest of verse

G|-----------------------------------------------------------------|
D|-----------------------------------------------------------------|
A|-5-5-5-5-5-5-5-5-------------------------------------------------|
E|-----------------3-3-3-3-3-3-3-3-5-5-5-5-5-5-5-5-5-5-5-5-5-5-5-5-|

Verse and "Oi, Oi, Oi...." part (same as intro)
at the "till the end of time" part and the second "oi" part you only hit
each note once in time...you'll figure it out real quick

you can figure out the order on your own, it's really easy.
Comments