Bouncing Souls - Joe Lies Chords & Tabs

 

Joe Lies Chords & Tabs

Bouncing Souls Chords & Tabs

Version: 3 Type: Bass Tab 0 ratings
1 star 2 stars 3 stars 4 stars 5 stars
comments

Joe Lies Bass Tab

   
-------------------------------------------------------------------------------
		     Joe Lies (When He Cries) - Bouncing Souls
-------------------------------------------------------------------------------

Tabbed By : Basscase
e-mail: basscase@gmail.com

Tuning: Standard (EADG)

Intro/Chorus
G|---------------------------------------------------------------------------|
D|---------------------------------------------------------------------------|
A|---------------------------------------------------------------------------|
E|--0----4----5----7---------------------------------------------------------|

Chorus Pt. 2 (first played fast then with a breakdown vibe then back to fast)
G|---------------------------------------------------------------------------|
D|---------------------------------------------------------------------------|
A|----------444444-555555-777777---------------------------------------------|
E|---555555------------------------------------------------------------------|
[ Tab from: http://www.guitartabs.cc/tabs/b/bouncing_souls/joe_lies_btab_ver_3.html ]
"All these jobs, All the words..."  (So Everyday I try to deal with these...)
G|------------------44-5-7---------------------------------------------------|
D|-------------5555----------------------------------------------------------|
A|----55555555---------------------------------------------------------------|
E|---------------------------------------------------------------------------|

"LIES!"
G|-----------------------444-55-7--------------------------------------------|
D|--------77-5-44-55555------------------------------------------------------|
A|--55555--------------------------------------------------------------------|
E|---------------------------------------------------------------------------|

"No More Lies!"
G|--------5-5-5-5---9-9-9-9--------------------------------------------------|
D|--------5-5-5-5---7-7-7-7--------------------------------------------------|
A|---------------------------------------------------------------------------|
E|---------------------------------------------------------------------------|

Back to LIES section and continue til the end of everything

**NOTE ON PAPILLON** The Bouncing Souls' bassist really enjoys the pattern that 
is dominant here, the "Chorus Pt. 2" applied in different keys easily finds its
way into other souls songs like Nerds, Freaks, and Romantics, Old School, among
many others... If you dont like figuring stuff out yourself try to find the key
and i assure you that this pattern will find its way (although through different
octaves, so watch out) in to their songs.


| /  slide up
| \  slide down
| h  hammer-on
| p  pull-off
| ~  vibrato
| +  harmonic
| x  Mute note
===============================================================================
Comments