Bouncing Souls - Inside Out Chords & Tabs

 

Inside Out Chords & Tabs

Bouncing Souls Chords & Tabs

Version: 1 Type: Tab 0 ratings
1 star 2 stars 3 stars 4 stars 5 stars
comments

Inside Out Tab

   
Band: Bouncing Souls
Song: Inside Out
Album: Anchors Away
Tabber: clark@theoddmenout.com

*= mute chord

Intro:
Riff 1
e----------------------------------------------------------------|
B----------------------------------------------------------------|
G----------------------------7-7-7-------------------------------|
D--9-9-9-9-9-4-4-4-5-5-5-5-5-7-7-7-7-7-7-7-7-4-4-4-5-5-5-5-7-7-7-|
A--9-9-9-9-9-4-4-4-5-5-5-5-5-5-5-5-7-7-7-7-7-4-4-4-5-5-5-5-7-7-7-|
E--7-7-7-7-7-2-2-2-3-3-3-3-3-------5-5-5-5-5-2-2-2-3-3-3-3-5-5-5-|
   * * * * * * * * * * * * * * * * * * * * * * * * * * * * 
Repeat this with the first chord (B) played open

Riff 2
e------------------------------------------------------------------|
B------------------------------------------------------------------|
G----------------------------7-7-7---------------------------------|
D--9-9-9-9-9-4-4-4-5-5-5-5-5-7-7-7-7-7-7-7-7-4-4-4-5-5-5-5-5-7-7-7-|
A--9-9-9-9-9-4-4-4-5-5-5-5-5-5-5-5-7-7-7-7-7-4-4-4-5-5-5-5-5-7-7-7-|
E--7-7-7-7-7-2-2-2-3-3-3-3-3-------5-5-5-5-5-2-2-2-3-3-3-3-3-5-5-5-|

For the verse you play Riff 2, the timing is tough so I'll try my best to place
the chords with the lyrics to help out.
[ Tab from: http://www.guitartabs.cc/tabs/b/bouncing_souls/inside_out_tab.html ]
Verse 1
B      F#       G         D  A     F#      G        A
It's incredible how we try to be a part of something
B     F#     G           D A                 F#    G       A
It's amazing how we feel alone, though we're never seperate
B       F#    G            D A          F#     G         A      B     
It's so funny how we weave a web of our own destruction, and we find 
F#     G             D  A            F#      G        A
in the end we fought so hard to be a part of something

Chorus:
B A G
A                         B   A     G      A
To feel someone beside you is beautiful in life
B      A      G                A
But to feel a wholeness inside is the greatest feeling
         B     A  G                  A 
There is nothing that can take that away
            B
Your never alone

Solo Riff:
e------------0-0-0-0-0-----------|
B--0-0-0-0-0-3-3-3-3-3-0-0--0-0--|
G--4-4-4-4-4-----------5/4--2-4--|
D--------------------------------| x2
A--------------------------------|
E--------------------------------|
                                    B-0-|
Riff 2 x2(with second guitar playing: G-4-| a bunch of times

Riff 1

Then repeat verse 1, with first half muted

D, A, B, F#-G

Bridge Chorus:
D           A             B   F#    G      D
To feel someone beside you is beautiful in life
              A               B       F#  G 
But to feel a wholeness inside is the greatest feeling of 
D   A  B,F#-G D   A  B,F#-G
All-aa-all,   All-aa-all

That's it!  This is the first tab for this killer song on the interbet as far as
I'm concerned.  For suggestions, requests, mistakes, and what not, email me.  Check
out my bands site: www.theoddmenout.com
Comments