Bouncing Souls - Im From There Chords & Tabs

 

Im From There Chords & Tabs

Bouncing Souls Chords & Tabs

Version: 1 Type: Tab 0 ratings
1 star 2 stars 3 stars 4 stars 5 stars
comments

Im From There Tab

   
Band: Bouncing Souls
Song: I'm From There
Album: Anchors Away
Tabber: clark@theoddmenout.com

Chords: (These are the names I made up for them to be easy)
  C/E A C/F G/B
e--------------|
B--------------|
G--------------|
D--2--2--3-----|
A--3--0--3--2--|
E-----------3--|

Verse 1: (all muted)
C/E                         A
When we were two brothers forever in the dark and light,
           C/F                C/E                 G/B
We had our fights against the world, against each other
C/E                               A
We traveled in the night, so many roads, so many shows together
C/F          C/E   G/B
Far apart we grew, isolated but still together

Verse 2: (all muted)
C/E                         A
When we were two brothers forever in the dark and light,
           C/F               C/E                 G/B
We had our fights against ourselves, against each other
C/E              A 
We were afraid, afraid of so many things
         C/F                  C/E            G/B
It was a fight to overcome ourselves and see clearer

Riff 1:                           x3
e--3-3-3-3-3-3-3-3-3-3-3-3-3-3-3-3--|--0-0-0-0-0-0--1--1-1-1-1-1--|
B--1-1-1-1-1-1-1-1-1-1-1-1-1-1-1-1--|--1-1-1-1-1-1--1--1-1-1-1-1--|
G--0-0-0-0-0-0-0-0-0-0-0-0-0-0-0-0--|--0-0-0-0-0-0--0--0-0-0-0-0--|all x2
D--2-2-2-2-2-2-2-2-2-2-2-2-2-2-2-2--|--2-2-2-2-2-2--2--2-2-2-2-2--|
A--3-3-3-3-3-3-3-3-3-3-3-3-3-3-3-3--|--3-3-3-3-3-3--3--3-3-3-3-3--|
E-----------------------------------|-----------------------------|
[ Tab from: http://www.guitartabs.cc/tabs/b/bouncing_souls/im_from_there_tab.html ]
Verse 3:(use open chords)
C                   C/A
We are two brothers forever in the dark and light
           C/F                C                   G
We had our fights against the world, against each other
C                                       C/A
Time has opened my heart, I don't wanna hold onto that past
              C/F        C         G
I don't wanna live in isolation anymore

Chorus: (arpeggiate chords with ")
C"              C/F"
There's nothing left to do 
       C"                 C/F"  C"  C/F"  G
but to kiss our lives good-bye

Good Bye...

Riff 2:        x6
e--3-3-3-0--0----|--1-1-1-0--0-1--1-1-0-0-1-1-3--|
B--1-1-1-1--1-1--|--1-1-1-1--1-1--1-1-1-1-1-1-1--|
G--0-0-0-0--0-0--|--0-0-0-0--0-0--0-0-0-0-0-0-0--| all x2
D--2-2-2-2--2-2--|--2-2-2-2--2-2--2-2-2-2-2-2-2--|
A--3-3-3-3--3-3--|--3-3-3-3--3-3--3-3-3-3-3-3-3--|
E----------------|-------------------------------|

Riff x1

Outro:
(C)                        (A)
When we were two brothers forever in the dark and light,
           (F)               (E)                 (G)
We had our fights against ourselves, against each other

Chorus

Riff 2 x2

Riff 1 x2

Solo riff:                        x3                              
e-----------------------------------|------------------1--1-1-1-1-1-1-1--|
B-----------------------------------|------------------------------------|
G----------5-5-------------5-5------|----------5-5-----------------------|x2
D------2-2-----2-2-----2-2-----2-2--|------2-2-----2-2-------------------|
A--3-3---------------3--------------|--3-3-------------------------------|
E-----------------------------------|------------------------------------|

That's it, and that's the whole album folks!!!! For suggestions, corrections,
and requests email me: oddmenout4@yahoo.com.
Go to my band's website: www.theoddmenout.com
Comments