Bouncing Souls - Here We Go Chords & Tabs

 

Here We Go Chords & Tabs

Bouncing Souls Chords & Tabs

Version: 1 Type: Tab 0 ratings
1 star 2 stars 3 stars 4 stars 5 stars
comments

Here We Go Tab

#----------------------------------PLEASE NOTE--------------------------------#
#This file is the author's own work and represents their interpretation of the#
#song. You may only use this file for private study, scholarship, or research.#
#-----------------------------------------------------------------------------#

Date: Mon, 11 May 1998 15:37:51 EDT
From: OpIvy69690 
Subject: b/bouncing_souls/here_we_go.tab


Artist:      Bouncing Souls
Song Title:  Here We Go
Album Title: Maniacal Laughter
Transcribed: Taylor Keene
Send Questions/Comments/Requests: opivy69690 @ AOL.com


Chorus: (x4)
e-----------------------------------------------------
B-----------------------------------------------------
G--4-4-4-4-4-4-4-4-----------4-4-4-4------------------
D--4-4-4-4-4-4-4-4--4-4-4-4--4-4-4-4------------------
A--2-2-2-2-2-2-2-2--4-4-4-4--2-2-2-2------------------
E-------------------2-2-2-2---------------------------

Verse1: (x4) Palm-Muted
e-----------------------------------------------------
B-----------------------------------------------------
G--7-7-7-7-7-7-7-7-----------7-7-7-7------------------
D--7-7-7-7-7-7-7-7--7-7-7-7--7-7-7-7------------------
A--5-5-5-5-5-5-5-5--7-7-7-7--5-5-5-5------------------
E-------------------5-5-5-5---------------------------
[ Tab from: http://www.guitartabs.cc/tabs/b/bouncing_souls/here_we_go_tab.html ]
Verse2: (x4) Palm-Muted
e-----------------------------------------------------
B-----------------------------------------------------
G--9-9-9-9-9-9-9-9-----------9-9-9-9------------------
D--9-9-9-9-9-9-9-9--9-9-9-9--9-9-9-9------------------
A--7-7-7-7-7-7-7-7--9-9-9-9--7-7-7-7------------------
E-------------------7-7-7-7---------------------------

Chorus: (x2)

Verse3: (x4) Same as Verse1

First Solo:
e-----------------------------------
B-----------------------------------
G-----------------------------------
D-----------------------------------
A--9-6--6-4-6--6-9-6--6-4-2--2-(x2)-
E-----------------------------------

Verse4: (x4) Same as Verse1&3

Chorus: (x2)
Then:
e-----------------------------------------------------
B-----------------------------------------------------
G--7-7-7-7-7-7-7-7-----------7-7-7-7------------------
D--7-7-7-7-7-7-7-7--7-7-7-7--7-7-7-7------------------
A--5-5-5-5-5-5-5-5--7-7-7-7--5-5-5-5------------------
E-------------------5-5-5-5---------------------------

Second Solo:
e----------------------------------I-------------------
B----------------------------------I-------------------
G----------------------------------I---4---------------
D----------------------------------I-----4-6-4-2-1-----
A--9-6--6-4-6--6-9-6--6-4-2--2-(x3)I-2-------------4-2-
E----------------------------------I-------------------
Comments