Bouncing Souls - Fight To Live Chords & Tabs

 

Fight To Live Chords & Tabs

Bouncing Souls Chords & Tabs

Version: 2 Type: Bass Tab 0 ratings
1 star 2 stars 3 stars 4 stars 5 stars
comments

Fight To Live Bass Tab

Fight to live by The Bouncing Souls

Tabbed by yours truly Mr. Recordman
Recordman@basstabz.com
Tuning: Normal tuning => EADG
This is a rather simple song with a good sounding verse riff that is a little bit tricky 
butt never the less i figured it out for you bass-maniacs. Once you have the basics for the riff
you just have to be creatif with the E on the A-string and the open E, that what he does to.
So here is it the complete basstab for Fight to live by the Bouncing Souls.

|-|_|-/---|-------------------r--|--------------r--------r--| 
|---|/----|-------------------e--|--------------e--------e--| 
|---/-|_|-|-------------------s--|--------------s--------s--| x4
|--/----|-|--7---7---5--5--5--t--|--0--0--0--0--t--0--0--t--|
			    ==    ==       ==    ==    ==    ==
             |   |   |  |  |  |     |  |  |  |  |  |  |  |
             /   /   /  /  /  /     /  /  /  /  /  /  /  /

|--------------------------|    |-----------------|
|--------------------------|    |-----------------|
|--------------------------| x4 |-----------------| x4
|--7--7--7--7--7--7--7--7--|    |--0---0---0---0--|
    ==    ==    ==    ==     
   |  |  |  |  |  |  |  |          |   |   |   |
   /  /  /  /  /  /  /  /          /   /   /   /

|--------------------------|--------------------------| 
|--------------------------|--------------------------| 
|--------------------------|--------------------------| x4
|--7--7--7--7--5--5--5--5--|--0--0--0--0--0--0--0--0--|
    ==    ==    ==    ==       ==    ==    ==    ==
   |  |  |  |  |  |  |  |     |  |  |  |  |  |  |  |
   /  /  /  /  /  /  /  /     /  /  /  /  /  /  /  /

|------------------------|--------------------------|
|------------7--6--------|--------------------------|
|------6--7--------7--7--|-----7-----------7--6--4--| x16
|--7---------------------|--------0--0--0-----------|
        ==    ==    ==       ==    ==    ==    ==
   |   |  |  |  |  |  |     |  |  |  |  |  |  |  |
   /   /  /  /  /  /  /-----/  /  /  /  /  /  /  /
This is the part where you can improvise something with different E notes (only in the 
second measure that is!!!)
[ Tab from: http://www.guitartabs.cc/tabs/b/bouncing_souls/fight_to_live_btab_ver_2.html ]
|--------------|--------------|
|--------------|--------------|
|--------------|--7--7--7--7--| x4
|--7--7--7--7--|--------------|
   |  |  |  |     |  |  |  |
   /  /  /  /     /  /  /  /

|-------------------r--|--------------r--------r--| 
|-------------------e--|--------------e--------e--| 
|-------------------s--|--------------s--------s--| x4
|--7---7---5--5--5--t--|--0--0--0--0--t--0--0--t--|
	      ==    ==       ==    ==    ==    ==
   |   |   |  |  |  |     |  |  |  |  |  |  |  |
   /   /   /  /  /  /     /  /  /  /  /  /  /  /

|--------------------------|    
|--------------------------|    
|--------------------------| x4 
|--7--7--7--7--7--7--7--7--|    
    ==    ==    ==    ==     
   |  |  |  |  |  |  |  |
   /  /  /  /  /  /  /  / 

|--------------------------|--------------------------| 
|--------------------------|--------------------------| 
|--------------------------|--------------------------| x4
|--7--7--7--7--5--5--5--5--|--0--0--0--0--0--0--0--0--|
    ==    ==    ==    ==       ==    ==    ==    ==
   |  |  |  |  |  |  |  |     |  |  |  |  |  |  |  |
   /  /  /  /  /  /  /  /     /  /  /  /  /  /  /  / 

|------------------------|--------------------------|
|------------7--6--------|--------------------------|
|------6--7--------7--7--|-----7-----------7--6--4--| x4
|--7---------------------|--------0--0--0-----------|
        ==    ==    ==       ==    ==    ==    ==
   |   |  |  |  |  |  |     |  |  |  |  |  |  |  |
   /   /  /  /  /  /  /-----/  /  /  /  /  /  /  / 

|-----r-----r--------------|--------------------------|
|-----e-----e--7--6--------|--------------------------|
|-----s-----s--------7--7--|-----7-----------7--6--4--| x4
|--7--t--7--t--------------|--------0--0--0-----------|
    ==    ==    ==    ==       ==    ==    ==    ==
   |  |  |  |  |  |  |  |     |  |  |  |  |  |  |  |
   /  /  /  /  /  /  /  /-----/  /  /  /  /  /  /  /


|-------------------r--|--------------r--------r--| 
|-------------------e--|--------------e--------e--| 
|-------------------s--|--------------s--------s--| x5
|--7---7---5--5--5--t--|--0--0--0--0--t--0--0--t--|
	      ==    ==       ==    ==    ==    ==
   |   |   |  |  |  |     |  |  |  |  |  |  |  |
   /   /   /  /  /  /     /  /  /  /  /  /  /  /

There you have it. That's all
Just remember this: Punk is NOT dead and it will never be dead neither
See ya

Mr. Recordman
Comments