Bouncing Souls - East Coast Fuck You Chords & Tabs

 

East Coast Fuck You Chords & Tabs

Bouncing Souls Chords & Tabs

Version: 1 Type: Bass Tab 0 ratings
1 star 2 stars 3 stars 4 stars 5 stars
comments

East Coast Fuck You Bass Tab

Title: East coast fuck you
Album: The bouncing souls
Transcribed by: SK8BOB
Email: sk8bob@geocities.com

------------------------------------------------------------
------------------------------------------------------------
-------5555------5555------5555------------5-3-------5-3-------
-5555------5555------5555------3-34-555-----3-555-----3-555-

----------------------
----------------------
-------5555------------
-5555------3333-5555--
And so on and so on
[ Tab from: http://www.guitartabs.cc/tabs/b/bouncing_souls/east_coast_fuck_you_btab.html ]
___________________________________________________________________
sk8bob@geocities.com
East side mags
-----------------
-----------------
-----------------
-555-222---------
-----------333-555-

------------------------------------------------------------------------------

------------------------------------------------------------------------------

-5555555555-------------------44-5555555555----------------------------------22------------44-

----------------33-5555555555-------------------33-5555555555-333333333----55555555----

Uhmm... have fun OK!

Comments