Bouncing Souls - Argyle Chords & Tabs

 

Argyle Chords & Tabs

Bouncing Souls Chords & Tabs

Version: 1 Type: Tab 0 ratings
1 star 2 stars 3 stars 4 stars 5 stars
comments

Argyle Tab

   
Band: Bouncing Souls
Song: Argyle
Album: Maniacal Laughter
Tabber: clark@theoddmenout.com

*= mute chord

Intro:
Bass Riff
G-------------------------------------------------------------------|
B---------------4--------------4-2--------------0--------------4-2--|
A--5-5-5--5-5-5---5-5-5--5-5-5-----2-2-2--2-2-2---0-0-0--0-0-0------|
E-------------------------------------------------------------------|
 (After one time the guitar comes in with this)
             x4               x2
e--------------------------------------------------------------|
B--------------------------------------------------------------|
G--7--7--7--7--7--7--7--7--7--7--7--7--7--7--7--7--7--7--7--7--|
D--7--7--7--7--7--7--7--7--7--7--7--7--7--7--7--7--7--7--7--7--|
A--5--5--5--5--5--5--5--5--5--5--5--5--5--5--5--5--5--5--5--5--|
E--------------------------------------------------------------|
   *  *  *  *  *  *  *  *  *  *  *  *  *  *  *  *  *  *  *  *
e--------------------------------------------------------------|
B--------------------------------------------------------------|
G--7--7--7-7-7-7--7--7--7-7-7-7--4--4--4-4-4-4--2--2--2-2-2-2--| x2
D--7--7--7-7-7-7--7--7--7-7-7-7--4--4--4-4-4-4--2--2--2-2-2-2--|
A--5--5--5-5-5-5--5--5--5-5-5-5--2--2--2-2-2-2--0--0--0-0-0-0--|
E--------------------------------------------------------------|

e-----------------------------------------------------------|
B-----------------------------------------------------------|
G-----------------------------------------------------------|
D--5--5--5-5-5/9-7--7--7-7-7-7---9--9-9-9-9--7--7--7-7-7-7--|
A--5--5--5-5-5/9-7--7--7-7-7-7---9--9-9-9-9--7--7--7-7-7-7--|
E--3--3--3-3-3/7-5--5--5-5-5-5---7--7-7-7-7--5--5--5-5-5-5--|

e-----------------------------------|
B-----------------------------------|
G-------------------------------7~--|
D--5--5--5-5-5/9-7--7--7-7-7-7--7~--|
A--5--5--5-5-5/9-7--7--7-7-7-7--5~--|
E--3--3--3-3-3/7-5--5--5-5-5-5------|
[ Tab from: http://www.guitartabs.cc/tabs/b/bouncing_souls/argyle_tab.html ]
(Riff 1      x2)
e--------------|-----------------------------------|
B--------------|-----------------------------------|
G--7--7--------|--4-4-4-4-4-4-4-4-2-2-2-2-2-2-2-2--| x2
D--7--7--------|--4-4-4-4-4-4-4-4-2-2-2-2-2-2-2-2--|
A--5--5-2------|--2-2-2-2-2-2-2-2-0-0-0-0-0-0-0-0--|
E-------2h3-5--|-----------------------------------|
                  * * * * * * * * * * * * * * * * 
Verse:
  Riff 1                        Riff 1
I know I'm not a bad guy when I try to what's right
     B*                             A*
Everyone who comes to me don't understand or see my plight
     Riff 1                       Riff 1
Everything I've ever done and the plans I've had in sight
       B*                         A*
Always missed and gone wrong in a way, until I gave up and said
  Riff 1   Riff 1   B*      A*
Alright! Alright! Alright...

Chorus 1:
C                   D
Let me alone cuz no one wants to be
C                         D
Hangin' around with someone messed up like me
C                    D
I guess my way isn't good enough
C                         D
When I try I just keep on wreckin' stuff

Verse 2:
   Riff 1          Riff 1
It seems everybody knows but me
B*                        A*
How to go, what to do, and where to be
Riff 1                   Riff 1
Everywhere I go they all talk the same
B*                      A*                        Riff 1
They don't even have to try, they make me feel so lame!
   Riff 1   B*      A*
So Lame! So Lame...

Chorus 2:
C                     D
Friends and jobs have come and gone 
   C                   D
No matter what i do it goes on and on 
  C                      D
I wonder if you sometimes feel this way 
    C                       D
And do you lay awake at the end of the day ?

Bridge:
e------------------------------------------------------|
B--7--7-8-7--10--7--7-7-7--10--7--7-8-7--10------------|
G--7--7-7-7---7--7--7-8-7---7--7--7-7-7---7--6--6-7-6--| x2, then 1x slow
D--------------------------------------------7--7-7-7--|
A------------------------------------------------------|
E------------------------------------------------------|

(for this part play slow bridge riff, but i'll indicate root notes)

(D)               (D)
When I lose, everytime I win cuz,
(B)             (A)
No one will ever be
(D)               (D)                (B)        (A)
Messin' up stuff, doin' things wrong, quite like me...
G                A       B    A
No one will ever be like me
G                A       D~
No one will ever be like me...

Riff 1 x1,D

That's it! For suggestions, corrections, and requests, email me: oddmenout4@yahoo.com.
Check out my band's site: www.theoddmenout.com
Comments