Botch - O Furtuna Chords & Tabs

 

O Furtuna Chords & Tabs

Botch Chords & Tabs

Version: 1 Type: Tab 0 ratings
1 star 2 stars 3 stars 4 stars 5 stars
comments

O Furtuna Tab

   
-------------------------------------------------------------------------------
			     O Furtuna - Botch
-------------------------------------------------------------------------------

By:Matthias
joshbrown64@hotmail.com

opra cover

im not sure if there are two guitars in this song, but i put something just
in case there is.  It sounds good, but playing guitar #1 is more fun. 

bass for intro, then at 0:13, guitar comes in


GUITAR #1  (use low distortion, no second guitar)
verse #1
e|---------------------------------------------------------------------------|
B|---------------------------------------------------------------------------|
G|------10-10-9-9----10-10-9-9----10-10-9-10-12-10-9-------------------------|
D|---------------------------------------------------------------------------| x 2
A|---------------------------------------------------------------------------|
E|---------------------------------------------------------------------------|


verse #2
e|---------------------------------------------------------------------------|
B|------10-10-8-8----10-10-8-8----10-10-8-10-11-10-8-------------------------|
G|---------------------------------------------------------------------------|
D|---------------------------------------------------------------------------| x 2
A|---------------------------------------------------------------------------|
E|---------------------------------------------------------------------------|

GUITAR #1 (fast part)
(strum the strings constently this time)

verse #1 x2
verse #2 x2

 ending verse 
e|-----------------------------------------|
B|-----------------------------------------|
G|10-10-9-9--let ring----------------------|
D|-----------------------------------------|
A|-----------------------------------------|
E|-----------------------------------------|


GUITAR #2 fast part (play with G#1's verse 1 & 2, matches with G#2's verse's 3 & 4)
 
(if playing Guitar #2, maybe turn down volume just a little, as it is just background 

chords)
[ Tab from: http://www.guitartabs.cc/tabs/b/botch/o_furtuna_tab.html ]
G#2 Verse #3
e|---------------------------------------------------------------------------|
B|---------------------------------------------------------------------------|
G|---------------------------------------------------------------------------|
D|----8-8-7-7---8-8-7-7--8-8-7-8-10-8-7--------------------------------------| x2
A|----8-8-7-7---8-8-7-7--8-8-7-8-10-8-7--------------------------------------|
E|----6-6-5-5---6-6-5-5--6-6-5-6-8--6-5--------------------------------------|

G#2 VERSE #4
e|---------------------------------------------------------------------------|
B|---------------------------------------------------------------------------|
G|----7-7-5-5---7-7-5-5--7-7-5-7-8-7-5-----8-8-7-7---------------------------|
D|----7-7-5-5---7-7-5-5--7-7-5-7-8-7-5-----8-8-7-7-let ring------------------| x2
A|----5-5-3-3---5-5-3-3--5-5-3-5-6-5-3-----6-6-5-5---------------------------|
E|---------------------------------------------------------------------------|

g#2 ending verse					  
e|-------------------------------------------|
B|-------------------------------------------|
G|---------8-8-7-7---------------------------|
D|---------8-8-7-7-let ring------------------|
A|---------6-6-5-5---------------------------|
E|-------------------------------------------|

then back to the intro with guitar #1

verse #1 x2
verse #2 x2

then guitar #'s 1 & 2 together again for another fast part, just more intense

G#1
(strum the strings constently again)

Verse #1 x2
Verse #1 x2

G#1 ending verse 
e|-----------------------------------------|
B|-----------------------------------------|
G|---------10-10-9-9--let ring-------------|
D|-----------------------------------------|
A|-----------------------------------------|
E|-----------------------------------------|


G#2 
Verse #3 x2
verse #4 x2

g#2 ending verse					  
e|-------------------------------------------|
B|-------------------------------------------|
G|---------8-8-7-7---------------------------|
D|---------8-8-7-7-let ring------------------|
A|---------6-6-5-5---------------------------|
E|-------------------------------------------|


if you got any questions or see a mistakes, email me at 
Joshbrown64@hotmail.com

===============================================================================
Comments