Botch - O Fortuna Chords & Tabs

 

O Fortuna Chords & Tabs

Botch Chords & Tabs

Version: 1 Type: Bass Tab 0 ratings
1 star 2 stars 3 stars 4 stars 5 stars
comments

O Fortuna Bass Tab

first verse
-----------------------------------------------
-10-10-9-9----10-10-9-9----10-10-9-9-10-12-10-9    
-----------------------------------------------
-----------------------------------------------

second verse
-10-10-8-8---10-10-8-8----10-10-8-10-11-10-8
--------------------------------------------      
--------------------------------------------
--------------------------------------------

end verse
--------------------
-10-10-9-9--LET-RIng
--------------------
--------------------

------------------------------------------
------------------------------------------
------------------------------------------
-6-6-5-5----6-6-5-5----6-6-5-6-8-6-5------

    
-----------------------------------------------
-----------------------------------------------
-5-5-3-3----5-5-3-3----5-5-3-5-6-5-3----6-6-5-5
-----------------------------------------------

[ Tab from: http://www.guitartabs.cc/tabs/b/botch/o_fortuna_btab.html ]
--------
--------
-6-6-5-5
--------


-------------------------------------
-------------------------------------
-8-8-7-7----8-8-7-7----8-8-7-8-10-8-7
-------------------------------------


-----------------------------------------------
-7-7-5-5----7-7-5-5----7-7-5-7-8-7-5----8-8-7-7
-----------------------------------------------
-----------------------------------------------


--------
-8-8-7-7
--------
--------





-------------------------------------
-8-8-7-7----8-8-7-7----8-8-7-8-10-8-7
-------------------------------------
-------------------------------------


-7-7-5-5----7-7-5-5----7-7-5-7-8-7-5----8-8-7-7
-----------------------------------------------
-----------------------------------------------
-----------------------------------------------


-8-8-7-7
--------
--------
--------


I'm still a beginner and I took my time to tab this song. It might be wrong or it might be right.
Comments