Boston - Something About You Chords & Tabs

 

Something About You Chords & Tabs

Boston Chords & Tabs

Version: 1 Type: Tab 0 ratings
1 star 2 stars 3 stars 4 stars 5 stars
comments

Something About You Tab

Boston - Something About You


Intro

|---------------------|---------4------------|
|---------4h5---------|---------------5------|
|-----6-------6---6---|-------6-----6---6----|
|---6---6-------6-----|-----6----------------|
|-4-------------------|--0--------0----------|
|---------------------|----------------------|

|---------------------|----------------------|
|-------4h5-----4-----|-----------4h5--------|
|-----4-----4-----4h6-|-----6---------6------|
|---4---------4-------|---6---6---------6----|
|-0-------------------|-4-----------------6--|
|---------------------|----------------------|
[ Tab from: http://www.guitartabs.cc/tabs/b/boston/something_about_you_tab.html ]
|-------4-------7-------|-----------------0-|
|------------4----------|-------0h2---0-----|
|-----4-----------4-----|-----2---------2---|
|--------------------4--|---2---------------|
|---7-----6-------------|-0---------0-------|
|-----------------------|-------------------|

|-------------------|-------------------|
|-------------------|---------4---------|
|-------1h2-----1---|-------4---4---4---|
|-----2-----------2-|-----4-------4---4-|
|---2---------2-----|--2----------------|
|-0---------0-------|-------------------|

|-----------------|-------------------|--4---------||
|-------4-----4-5-|-2-------------2---|--2---------||
|-----4-----4-----|---2-----2-------2-|--2---------||
|---4-------------|------2----2-------|--2---------||
|-0-------0-------|-------------0-----|------------||
|-----------------|-------------------|------------||
Comments