Boston - Peace Of Mind Chords & Tabs

 

Peace Of Mind Chords & Tabs

Boston Chords & Tabs

Version: 7 Type: Tab 0 ratings
1 star 2 stars 3 stars 4 stars 5 stars
comments

Peace Of Mind Tab

|--------------------------------------------------------------------|
|--------------------------------------------------------------------|
|--------------------------------------------------------------------|
|--/6-4--------------4----------------4-6-7-4-6-4h6p4--------------4-|
|-------7-4-4--4-6-7---6-7-6----4-4-7-----------------7-4-4--4-6-7---|
|-----------------------------7--------------------------------------|

|------------------------|-----------------------------------------|
|------------------------|-----------------------------------------|
|------------------------|----------------8-9-11-8-9-8h9p8---------|
|----------------4-6-7-4-|-6-7-9-11-11-11------------------9-11-11-|
|-6-7-6---4-4-7----------|-----------------------------------------|
|-------7----------------|-----------------------------------------|
[ Tab from: http://www.guitartabs.cc/tabs/b/boston/peace_of_mind_tab_ver_7.html ]
|-------------------------------------------------------------------|
|-------------------------------------------------------------------|
|-8-9-11b13r11--9-8-9-8h9p8------------8-9-11-8-9-8h9p8---------8-9-|
|---------------------------9-11-11-11------------------9-11-11-----|
|-------------------------------------------------------------------|
|-------------------------------------------------------------------|

|----------------|------------------------|
|----------------|-------7-9-10-7-9-7h9p7-|
|--11b13r11--9-8-|-9-9-9------------------|
|----------------|------------------------|
|----------------|------------------------|
|----------------|------------------------|

|------------------------------------|
|---------9-10-10b12r10-9-7-9-7h9p7--|
|-8-9-9-9----------------------------|
|------------------------------------|play the last part through
|------------------------------------|  fadeout
|------------------------------------|
Comments