Boston - Peace Of Mind Chords & Tabs

 

Peace Of Mind Chords & Tabs

Boston Chords & Tabs

Version: 5 Type: Tab 0 ratings
1 star 2 stars 3 stars 4 stars 5 stars
comments

Peace Of Mind Tab

okay, someone wanted more Boston, so here you go. I can't take the credit, since I didn't 
tab it. So thank Dave Shapiro, not me. Anyway, "^" indicates a hammer-on, and "b" indicates 
a bend. Have fun! Boston ROCKS!!

Intro:
-------------------------------
-5-x--------------9--9---------
-6-x-6--6-x-x-x-x-9--9-8--8-8--
-6-x-7--7-x-x-x-x-9--9-9--9-9--
-4-x-7--7-x-x-x-x-7--7-9--7-9--
-----5--5-x-x-x-x------7--7-7--

Intro line over above chords:


------------------------------------------------------------
------------------------------------------------------------
------------------------------------------------------------
--/6-4----------------4-------------------4-6-7-4--6-4^6^4--
-------7-4--4--4-6-7----6--7-6----4--4--7-------------------
-------------------------------7----------------------------


------------------------------------------------------------|
------------------------------------------------------------|
------------------------------------------------------------|
-----------------4------------------4-6--7-4--6--4^6^4------|
--7-4--4--4-6-7----6--7-6---4--4--7--------------------7-7--|
--------------------------7---------------------------------|

Intro to all verses:


------------------------------------------------------------|
--9--10--9--9--9-10-9-10-9-10-9--10-9-9---9--9-7-5---------5|
--9---9--9--9--9--9-9--9-9--9-9---9-9-9---9--9-8-6-6-4-4^6-4|
--9--11--9--9--9-11-9-11-9-11-9--11-9-9------------7-6-4^6--|
------------------------------------------------------------|
------------------------------------------------------------|

Verses:


------------------------------------------------------------
-9-10--9-9-9--10--9---------------7-7-------9-9-------------
-9--9--9-9-9---9--9---------------7-7--6-6--9-9------9-9----
-9-11--9-9-9--11--9-------9-11----7-7--7-7--9-9------9-9^11-
---------------------9^11------0--5-5--7-7--7-7-9^11--------
---------------------------------------5-5------------------



------------------------------------------------------------
------------9--10--9--9--9-10-9---------------7-7-----------
-9----------9---9--9--9--9--9-9---------------7-7--6-6------
--------9---9--11--9--9--9-11-9-------9-11----7-7--7-7------
---9^11--------------------------9^11------0--5-5--7-7------
---------------------------------------------------5-5------


--------------------------------------------|
--------------------------------------------|
--------------------------------------------|
--------------------------------------------|
--9-9-11-9-9-9-9-11-9-9-9-9-11-9-9-9-9-11-9-|
--7-7--7-7-7-7-7--7-7-7-7-7--7-7-7-7-7--7-7-|
[ Tab from: http://www.guitartabs.cc/tabs/b/boston/peace_of_mind_tab_ver_5.html ]
Chords in chorus are the same as the intro acoustic riff.
The bridge goes:


---------------------------|---|
---------------------------|---|
-----------------2---6---9-|---|
--9-9-9-9-9------2---6---9-|-2-|
--9-9-9-9-9------0-0-4-0-7-|-2-|
--7-7-7-7-7--2-4-----------|-0-|

The solo goes:

------------------------------------------------------------
------------------------------------------------------------
--------------4-7^4---4-7b9--7-6--4^6^4---------------------
--------2-4/6-------6--------------------7-6----------------
----2-4---------------------------------------7^5-----------
--4-----------------------------------------------7^5-4-----


------------------------------------------------------------
------------------------------------------------------------
------11^14^12^11----12b14--12-11--9^11^9----9-11^9--------9
--14--------------14----------------------11--------11^9----
---------------------------------------------------------11-
------------------------------------------------------------



--------------------------------------------------19--------
----17----17--20b22--20-19--17^19^17----17--19b21----19b21--
-18----18----------------------------18---------------------
------------------------------------------------------------
------------------------------------------------------------
------------------------------------------------------------


---------------------------7--------------------------16-17b19-|
---------------------------------------------------19----------|
------------4^6^4---4--6b8---6b8b6--4--------18b20-------------|
---4-5-6-7--------6-----------------------16-------------------|
---------------------------------------18----------------------|
---------------------------------------------------------------|

Then two guitars come in and do this (arranged for 1 guitar)


-----------------------------------------------------------------|
------------7-9--10-7--9-7^9^7--------12b14--12--10^12^10--9--7--|
--8--9-9--9-8-9--11-8--9-8^9^8--8--9--13b14--13--11^13^11--9--8--|
--------------------------------9-11-----------------------------|
-----------------------------------------------------------------|
-----------------------------------------------------------------|

The above riff repeats twice. The first ending for the repeat is:


--------|
--------|
--------|
--9-9-9-|
--------|
--------|

The second ending is:


------------------|--------------19b21--|
--9--7^9^7--------|------16--17--21b22--|
--9--8^9^8--9-----|--18--16--18---------|
-----------11--11-|--19-----------------|
---------------12-|---------------------|
------------------|---------------------|
Comments