Boston - More Than A Feeling Chords & Tabs

 

More Than A Feeling Chords & Tabs

Boston Chords & Tabs

Version: 7 Type: Tab 0 ratings
1 star 2 stars 3 stars 4 stars 5 stars
comments

More Than A Feeling Tab

Ok im very sure this is how the song goes,.. but decide for yourself,...
though its more accurate than most boston tabs out there


|-------3--2------------------------0----0-----------3--------|
|---3--------3-----3-----3------------3----3---3--3----3---0--|
|-----2--------0-----0-----0------------0----0---0--0----0----|
|-0-----------------------------------------------------------|
|-----------------3-----2--------3----------------------------|
|-----------------------------3-------------------------------|

|-------------------------------------------------|
|--13-12h13p12-12-10-13-12--10h12p10-13-12-10-----|
|-------------------------12----------------------|
|-------------------------------------------------|
|-------------------------------------------------|
|-------------------------------------------------|

|-------------------------------------------------|
|-------------------------------------------------|
|-------------------------------------------------|
|----------5-5-5--9-9--7-7-7----------------------|
|--5-5-x-x-3-3-3--7-7--5-5-5----------------------|
|--3-3-x-x----------------------------------------|
[ Tab from: http://www.guitartabs.cc/tabs/b/boston/more_than_a_feeling_tab_ver_7.html ]
|---0--------0----0---0--------3-----2---0---2-----|
|---3--------3----2---0---2----3-----3---0---3-----|
|---0--------2----2---2---2----0-----2---0---2-----|
|---2--------2----2---2---2----0-----0---2---0-----|
|---2--------------------------2---------2---------|
|---0--------------------------3-----2---0---------|
   

MAIN SOLO:
|----------------------------------------------------------|
|-------7-7-8-7h8p7---10-8-7h8p7-----7-8-7h8p7---7---------|
|--6-7-9-----------9-7--7-------9-7-9-7-------9-7-9-7-6-2--|
|----------------------------------------------------------|
|----------------------------------------------------------|
|----------------------------------------------------------|


|--------------10-10-9-7h9p7---------------------------------10-9-7--19-|
|7-7-8-7h8p7----------------10-8-7-8-7h8p7-------7-5h7p5----------------|
|-----------9-7-------------------7-------9-7-9-7-------7-6-7-----------|
|-----------------------------------------------------------------------|
|-----------------------------------------------------------------------|
|-----------------------------------------------------------------------|

ok........ that is the song, and im not to sure about the order, listen to it
and you should pick it up, but it goes summit like this

       intro-
       pre-chorus-
       chorus-
       verse-
       pre-chorus-
       chorus-
       intro-
       solo-
       chorus-

     if you got anythink u wanna know, or complaints,..then smokymacpot@hotmail.com

        ROCK ON!!
Comments