Boston - More Than A Feeling Chords & Tabs

 

More Than A Feeling Chords & Tabs

Boston Chords & Tabs

Version: 2 Type: Tab 8 ratings
1 star 2 stars 3 stars 4 stars 5 stars
comments

More Than A Feeling Tab

   
This is my first tab.

b=1/2 step bend
r=release bend
~=let sustain
h=hammer-on
p=pull-off
tr=trill (hammer-on/pull-off combo)

this is in standard tuning

( Guitar 1---Acoustic, excellent on a 12-string )
RIFF 1

	 
	D 
e|---------3-2---------------------------|
B|-----3--------3---------3--------3-----|
G|-------2--------2----0--------0--------|
D|--0------------------------------------|  x7?
A|-------------------3-------2-----------|
E|------------------------------------3--|


	Cadd9 		      G
e|--------------0--------------------------3------------|
B|-----3------------3-----3------3------------3---------|
G|--------0------------0------------0------------0------|
D|-----------2-------------------------0------------0---|
A|--3-------------------------2-------------------------|
E|------------------------------------------------------|


( Guitar 2---Electric, no distortion, humbucker pickup or with a treble boost )
RIFF 2


e|----------------------------------------------|
B|--12b--12--12b--r10--12b-r12--10h12p10--8 ~ --|
G|----------------------------------------------|
D|----------------------------------------------|
A|----------------------------------------------|
E|----------------------------------------------|
[ Tab from: http://www.guitartabs.cc/tabs/b/boston/more_than_a_feeling_tab_ver_2.html ]
*for this prev. riff, you bend the 12th fret up 1/2 step, then pick the 12th
fret without the bend, then pick again, bending it up 1/2 step, and place another
finger on the 10th fret so when you release this bend it has a pull off effect. 
Then, bend the 12th fret, and release back to the 12th fret. The last part is just a
simple hammer-on and a pull off, then hit the 8th fret, and let it sustain. Listen to 
the song to understand it more.


( Guitar 3, light distortion-gain at about 3 )
RIFF 3 (chorus)


   G5	 C5    E5         D5   C5
e|--------------------------------|
B|--------------------------------|
G|--------5--5--9--9--9--7--7--5--|
D|--5--5--5--5--9--9--9--7--7--5--| repeat a bunch of times
A|--5--5--3--3--7--7--7--5--5--3--|
E|--3--3--------------------------|

Just play these riffs over and over. Listen to record to get correct muting. All are
downstrokes except the 2nd E5

Solo:
(Guitar 2)


e|----------------------------------------------------------------------------------|
B|-----------7--7--8--7tr8---10---8----7tr8------7---8------7tr8------7-------------|
G|--6--7--9----------------9----7----7------9--7---9---7---------9--7---9--7--6-----|
D|--------------------------------------------------------7----------------------7--|
A|----------------------------------------------------------------------------------|
E|----------------------------------------------------------------------------------|


e|----------------------10--10--9--7tr9---------------------------------------------------------------19-|
B|--7--7--8--7tr9------------------------10--8--7--8---7tr8--------------7--5tr7-----------15--13--12----|
G|-----------------9--7------------------------------7-------9--7--9--7-----------7--6--7----------------|
D|-------------------------------------------------------------------------------------------------------|
A|-------------------------------------------------------------------------------------------------------|
E|-------------------------------------------------------------------------------------------------------|
Comments